Cifra Club

Differently

Neil Young

Cifra: Principal (violão e guitarra)
tom: G
(intro)

E |------------------------------------|
B |------------------------------------|
G |---7-9-12-9-7-----------------------|
D |-9------------9-7-9-----------------|
A |------------------------------------|
E |------------------------------------|

E |------------------------------------|
B |------------------------------------|
G |---0-2-4-2--------------------------|
D |-2------------4-2-0-2---------------|
A |------------------------------------|
E |------------------------------------|

(verse)
Em
Wish you told me by and by,
Am
That my life would come to this,
Em
That I'd have to find a way
              Am
To let things go,
         Em
That my friends would turn to foes,
       Am
And my love would come to blows,
       Em
Then I would have done some things
Am
Differently.

(chorus)
         G
Differently
                          C
I would ask you out every night
G
Differently
                             C
And I would make you feel so good.
G
Differently
                                   C
And appreciate the things that you bring to me, babe
         G
Differently
                   C
Oh yes I would, oh yeah.

(verse)
Yeah I know you tried and tried
But your signal I just missed
When you said my little girl would soon be gone.
Yes I didn't hear you then
And it might be too late now
That's another thing I'd do
Differently.

(chorus)
Differently
Like trying to make you feel loved every day
Differently
And saying little things to let you know how I feel
Differently
Yes I can hear your young voice calling me babe
Differently

(refrain)
Em
When I'm away I call you up
D
And you don't seem to miss me as much
C                            G             D
But I know our love is still there in your heart
D
Just differently.

(intro 2x)
E |------------------------------------|
B |------------------------------------|
G |---7-9-12-9-7-----------------------|
D |-9------------9-7-9-----------------|
A |------------------------------------|
E |------------------------------------|

E |------------------------------------|
B |------------------------------------|
G |---0-2-4-2--------------------------|
D |-2------------4-2-0-2---------------|
A |------------------------------------|
E |------------------------------------|

(chorus)
Differently
Oh yes, I can hear your young voice calling me, babe
Differently
Oh yes I can.
Differently
I'd appreciate the things that you bring to me babe, yes I would
Differently
Oh come on back to me babe bring your love back to me
Differently
Oh yeah I need your love, I need your love.
Differently
Yes I can tell you babe, I need your love.
Differently
Today is a brand new day, yes it is.
Differently
Got to get your love back, babe, come on now bring it back to me.
Differently
Turn it around babe, turn it around and bring it back.
Differently
Yeah, yeah, oh yeah, got to get your love back, come on babe.
Differently
Yeah I can hear your young voice calling me babe.
Differently
Come on back to me, come on back, yeah yeah, turn it around.
Differently
Oh yes I can, yes I can.
Differently.

(outro solo)
E |-----------------------------------|
B |-----------------------------------|
G |------12-12-12----12-14-16-14-12---|
D |-9-12----------12------------------|
A |-----------------------------------|
E |-----------------------------------|
00:00 / 00:00
Outros vídeos desta música
Repetir
Outros vídeos desta música
Composição de Neil Young
Colaboração e revisão:
  • Maximiliano Garcia
685 exibições
    • ½ Tom
    • A
    • Bb
    • B
    • C
    • Db
    • D
    • Eb
    • E
    • F
    • F#
    • G
    • Ab
  • Adicionar à lista

    0 comentários

    Ver todos os comentários

    Conseguiu tocar?

    0 Tocaram 0 Ainda não

    Grave um vídeo tocando Differently e nos envie!

    Entre para oCifra Club PRO

    Tenha acesso a benefícios exclusivos no App e no Site

    • Chega de anúncios

    • Prioridade de compra em lançamentos

    • Mais recursos no app do Afinador

    • Atendimento Prioritário

    • Descontos nos produtos Cifra Club

    • Ajude a produzir mais conteúdo

    00:00 / 00:00

    Cifra Club Pro

    Aproveite o Cifra Club com benefícios exclusivos e sem anúncios
    Cifra Club Pro
    Aproveite o Cifra Club com benefícios exclusivos e sem anúncios
    OK