Cifra Club

Astronauts Nightmare

Nektar

Cifra: Principal (violão e guitarra)
Selo Cifra Club: esta cifra foi revisada para atender aos critérios oficiais da nossa Equipe de Qualidade.
tom: Am
Intro has two guitars, the second one picks notes from Am, more and more agressively and rapidly.

                      Am       Am/G     Am/F#    Am/F Am/E   
E|---------|---------|---0---0---0---0-|---0---0---0---0-|
B|---------|---------|---1---1---1---1-|---1---1---1---1-|
G|-2-2-2-2-|-2-2-2-2-|-2---2---0---0---|-----------------|
D|---------|---------|-----------------|-4---4---3---2---|
A|---------|---------|-----------------|-----------------|
E|---------|---------|-----------------|-----------------|

  Am       Am/G     Am/F#    Am/F Am/E
E|---0---0---0---0-|---0---0---0---0-|
B|---1---1---1---1-|---1---1---1---1-|
G|-2---2---0---0---|-----------------|
D|-----------------|-4---4---3---2---| X6
A|-----------------|-----------------|
E|-----------------|-----------------|

Let ring: 
   Am7
E|-3---------------|
B|-1---------------|
G|-2---------------|
D|-2---------------|
A|-0---------------|
E|-----------------|

[Verse] (0:45)
  Am
E|--------------------------------------|
B|----------8--5--6-----5h6p5h6p5h6p5h6-|
G|-------------------7------------------|
D|--------------------------------------| X4
A|-0-0-0-0------------------------------|
E|--------------------------------------|

Repeat this pattern while singing:

Am
This is Robot 13 speaking
Planet Earth is turning round

  Am                            Dm
E|---------------------------------|
B|----------8--5--6----------------|
G|------------------7--------------|
D|----------------------7-5-----0--|
A|-0-0-0-0------------------8-7----|
E|---------------------------------|
The last note of this fill overlaps with the Dm from chorus.


[Chorus]

Dm          E              Am     G   
Although my mind is gently weeping
F          E                    Am  G  F  E
I know my hope is coming to an end


[Organ Solo] (1:35)

Repeat: Am G F E


[Bridge] (2:21)

A5 G5 C5 Bb5 (E5 D5) X4

A5 G5 C5 Bb5 (E5 D5) A5 G5 C5 Bb5 (E5 D5) 
      Evil                     is in your

A5 G5 C5 Bb5 (E5 D5) A5 G5 C5 Bb5 (E5 D5) 
heart now

A5 G5 C5 Bb5 (E5 D5) A5 G5 C5 Bb5 (E5 D5) 
Disillusion                   is in your

A5 G5 C5 Bb5 (E5 D5) A5 G5 C5 Bb5 (E5 D5) 
soul

  Am
E|-///17-17-17-17-15h17-|-15h17r15h17r15h17r15-------------------------|
B|----------------------|----------------------17r15h17r15h17r15h17r15-|
G|----------------------|----------------------------------------------|
D|----------------------|----------------------------------------------|
A|----------------------|----------------------------------------------|
E|----------------------|----------------------------------------------|
I'm not sure about this fill - feel free to experiment!

A5 G5 C5 Bb5 (E5 D5) X2

  Am
E|----17---17---17---17---17-|-20r17-20r17-20r17-20r17--------------------------------|
B|-20b--20b--20b--20b--20b---|-------------------------17h20-17h20-17h20-17h20-17-17--|
G|---------------------------|--------------------------------------------------------|
D|---------------------------|--------------------------------------------------------|
A|---------------------------|--------------------------------------------------------|
E|---------------------------|--------------------------------------------------------|
Again, experiment and improvise!

A5 G5 C5 Bb5 (E5 D5) X2

Am7

[Guitar solo] (3:10)

  Am
E|--------------------------------------|
B|----------8--5--6-----5h6p5h6p5h6p5h6-|
G|-------------------7------------------|
D|--------------------------------------| X4
A|-0-0-0-0------------------------------|
E|--------------------------------------|

The organ repeats this patern during guitar solo, two times per line of the solo.

E|---------------------------------------------------------------------------|
B|---------------------------------------------------------------------------|
G|--5//7r5\\\\---------------------------------------------------------------|
D|--------------7r5h7r5h7r5\\\\\\--------------------------------------------|
A|---------------------------------------------------------------------------|
E|---------------------------------------------------------------------------|

E|---------------------------------------------------------------------------|
B|---------------------------------------------------------------------------|
G|--5//7r5\\\\---------------5r2-2////////////////---------------------------|
D|--------------7r5h7r5h7r5--------------------------------------------------|
A|---------------------------------------------------------------------------|
E|---------------------------------------------------------------------------|

E|--12--9/(7)---7h8-7h8-7h8-7h8-7h8-7h8----12--------------------------------|
B|-----------10-------------------------10----10-----------------------------|
G|---------------------------------------------------------------------------|
D|---------------------------------------------------------------------------|
A|---------------------------------------------------------------------------|
E|---------------------------------------------------------------------------|

E|---------------------------------------------------------------------------|
B|---------------------------------------------------------------------------|
G|--5//7r5\\\\---------------5r2-2////////////////---------------------------|
D|--------------7r5h7r5h7r5--------------------------------------------------|
A|---------------------------------------------------------------------------|
E|---------------------------------------------------------------------------|


[Verse] (4:05)

  Am
E|--------------------------------------|
B|----------8--5--6-----5h6p5h6p5h6p5h6-|
G|-------------------7------------------|
D|--------------------------------------| X2
A|-0-0-0-0------------------------------|
E|--------------------------------------|
Repeat pattern above while singing:

Am
Oh my dear god can you really hear me
If so, then please help me find a way

  Am                            Dm
E|---------------------------------|
B|----------8--5--6----------------|
G|------------------7--------------|
D|----------------------7-5-----0--|
A|-0-0-0-0------------------8-7----|
E|---------------------------------|
The last note of this fill overlaps with the Dm from chorus, again.

[Chorus]

Dm          E               Am       G
Although my eyes are gently sleeping

F          E                    Am  G  F  E
I know my mind is coming to an end

Am  G  F  E
eeeeeeeeend

[Organ solo]

Repeat: Am G F E
But this time go more crazy


[Outro] (5:46)

A5 G5 F5 E5*


A5 G5 C5 Bb5 (E5 D5) X2
A5
A5 G5 F#5 F5 (F5 E5) 
A5
A5 G5 C5 Bb5

A5 A5 G5 G5
A5 (fades out)

************************************

| (n) Ghost note
| h   Hammer-on
| r   Release
| b   Bend
| /   Slide up
| \   Slide down
| ~   Vibrato

************************************
Chords:
Am  x02210
Am7 x02213
G   320033
F   133211
E   022100
A5  577xxx
G5  355xxx
C5  x355xx
F5  133xxx
E5  x799xx
E5* 022xxx
Outros vídeos desta música
    16 exibições
      • ½ Tom
      • Am
      • Bbm
      • Bm
      • Cm
      • C#m
      • Dm
      • Ebm
      • Em
      • Fm
      • F#m
      • Gm
      • G#m
    • Adicionar à lista

    Afinação da cifra

    Afinador online

      0 comentários

      Ver todos os comentários

      Entre para o Cifra Club PRO

      Tenha acesso a benefícios exclusivos no App e no Site

      • Chega de anúncios

      • Badges exclusivas

      • Mais recursos no app do Afinador

      • Atendimento Prioritário

      • Aumente seu limite de lista

      • Ajude a produzir mais conteúdo

      Cifra Club Pro

      Aproveite o Cifra Club com benefícios exclusivos e sem anúncios
      Cifra Club Pro
      Aproveite o Cifra Club com benefícios exclusivos e sem anúncios
      OK