Cifra Club

Aprenda

Último Beijo

Nenhum de Nós

Cifra: Completa (violão e guitarra)
tom: E
Intro: G#m E C#m F# (2x)
       F#
E|------------------|-----------|
B|---4--------------|---2-------|
G|-------6---6------|-----3-3~~-|(2x)
D|-6---6---6----6~~-|-4---------|
A|------------------|-----------|
E|------------------|-----------|

E|---------|
B|---2-----|
G|-3---3---|
D|-------4-|
A|---------|
E|---------|

Intro: B  F#m  A  E  B  F#m  A  B

E
Apague a luz

Tente dormir

Você está sozinho
    C#m
Em casa
B                  A9
Mas não há o que temer

E
Você deixou

Só um recado

E se foi assim
     C#m
Sem mais
B             A
E eu fiquei aqui
        B      A9
Para trás para trás
E|---------|-------------|
B|-9--7~~--|-10---10/12--|
G|---------|-------------|
D|---------|-------------|
A|---------|-------------|
E|---------|-------------|
      (2x)
E|--------|-----------|
B|-5--4~~-|-5--4------|
G|--------|------4~~~-|
D|--------|-----------|
A|--------|-----------|
E|--------|-----------|

G#m            E
Aquele último beijo
C#m
Tinha mesmo um
          F#
Gosto estranho
G#m            E
Aquele último beijo
C#m               F#
Um sabor de despedida
E|------------------|-----------|
B|---4--------------|---2-------|
G|-------6---6------|-----3-3~~-|(2x)
D|-6---6---6----6~~-|-4---------|
A|------------------|-----------|
E|------------------|-----------|

E|---------|
B|---2-----|
G|-3---3---|
D|-------4-|
A|---------|
E|---------|

      B
Você queria deixar
      F#m
Tudo sempre igual
A              E
Sempre igual sempre igual
            B                 F#m
Eu não conseguia deixar tudo sempre igual
A             E          B  F#m  A  B
Sempre igual sempre igual

E
Não posso estar

Em todos os lugares
                     C#m
Nem viver todas as vidas
B                     A
Nem saber todas as respostas
B          A           B      A
Que você pediu para dar para dar
E|--------|--------|
B|-9--7~~-|-5--4~~-|
G|--------|--------|
D|--------|--------|
A|--------|--------|
E|--------|--------|

E|----------------|
B|-9--7~~-5--4~~--|
G|----------------|
D|----------------|
A|----------------|
E|----------------|

G#m            E
Aquele último beijo
C#m
Tinha mesmo um
          F#
Gosto estranho
G#m            E
Aquele último beijo
C#m               F#
Um sabor de despedida
E|------------------|-----------|
B|---4--------------|---2-------|
G|-------6---6------|-----3-3~~-|(2x)
D|-6---6---6----6~~-|-4---------|
A|------------------|-----------|
E|------------------|-----------|

E|---------|
B|---2-----|
G|-3---3---|
D|-------4-|
A|---------|
E|---------|

Solo Base 2x: B   F#m A  E   E

E|------------------14-----------------------------------------------|
B|------12-14-14b16----14b16---14-14------14-14--12-12--10-10--9-----|
G|-6/14------------------------------6/14------------------------9~~-|
D|-------------------------------------------------------------------|
A|-------------------------------------------------------------------|
E|-------------------------------------------------------------------|

E|-------12p11--------------------------------12-12-----12--14--16--17--17b19~~-|
B|-10-12-------12-------------------12-14-14---------14-------------------------|
G|----------------11~~--------13-14---------------------------------------------|
D|-----------------------6/14---------------------------------------------------|
A|------------------------------------------------------------------------------|
E|------------------------------------------------------------------------------|

      B
Você queria deixar
      F#m
Tudo sempre igual
A              E
Sempre igual sempre igual
            B                 F#m
Eu não conseguia deixar tudo sempre igual
A               B
Sempre igual sempre igual
     B            F#m   A   E
Você queria deixar
              B     F#m   A          B
Eu não conseguia deixar sempre igual sempre igual
Composição de Nenhum De Nós
Colaboração e revisão:
  • Héron Marques
855 exibições
    • ½ Tom
    • A
    • Bb
    • B
    • C
    • Db
    • D
    • Eb
    • E
    • F
    • F#
    • G
    • Ab
  • Adicionar à lista

    0 comentários

    Ver todos os comentários
    00:00 / 00:00
    Outros vídeos desta música
    Repetir Qualidade Automático
    Outros vídeos desta música
    00:00 / 00:00
    Automático

    Cifra Club Pro

    Aproveite o Cifra Club com benefícios exclusivos e sem anúncios
    Cifra Club Pro
    Aproveite o Cifra Club com benefícios exclusivos e sem anúncios
    OK