Cifra Club

Milla

Netinho

Cifra: Principal (violão e guitarra)
Selo Cifra Club: esta cifra foi revisada para atender aos critérios oficiais da nossa Equipe de Qualidade.
tom: E
[Intro] E  A  G#m7  C#m7  F#
        A  G#m7  C#m7(9) 
        A  G#m7  C#m7  F#
        A  G#m7  C#m7(9) 

[Refrão]

    A  B             G#m7         
Oh Mi_la, mil e uma noites
               C#m7
De amor com você
               A                  B7(4/9)
Na praia, num barco, no farol apagado
                  G#m7                 
Num moinho abandonado
                        C#m7
Em mar grande, alto astral
            A                  B
Lá em Hollywood pra de tudo rolar
                 G#m7                    
Vendo estrelas caindo
                  C#m7         
Vendo a noite passar
        A  B             A  
Eu e você,   na ilha do sol
B             E   
  Na ilha do sol

( E4  E  E4  E )

[Solo 1] E  E4  E7M  E4

[Tab – Solo 1]

   E
E|-12---------12-14--12-----16h17p16--12----|
B|----12-12-------------12---------------12-|
G|------------------------------------------|
D|------------------------------------------|
A|------------------------------------------|
E|------------------------------------------|

E|-12-14---12h14-12-------------------------|
B|------------------14----------------------|
G|------------------------------------------|
D|------------------------------------------|
A|------------------------------------------|
E|------------------------------------------|

   E              E4              E7M   
E|-12---------12-14--12-----16h17p16--12----|
B|----12-12-------------12---------------12-|
G|------------------------------------------|
D|------------------------------------------|
A|------------------------------------------|
E|------------------------------------------|

       E4
E|-12-14---12h14-12-----12------------------|
B|------------------14----------------------|
G|------------------------------------------|
D|------------------------------------------|
A|------------------------------------------|
E|------------------------------------------|

[Primeira Parte]

 E           A    B           E
Tudo começou   há um tempo atrás
            A  B
Na ilha do sol
      E                 A     B     
O destino te mandou de volta para o
     E   A  B
Meu cais

 E           A    B           E
Tudo começou   há um tempo atrás
            A  B
Na ilha do sol
      E                 A     B     
O destino te mandou de volta para o
     E   A  B
Meu cais

[Pré-Refrão]

C#m         G#m           A              
    No coração ficou lembranças
        E    B/D#  C#m
De nós dois
        B                          
Como ferida aberta
 E4      E    E2  E
Como tatuagem

[Refrão]

    A  B             G#m7         
Oh Mi_la, mil e uma noites
               C#m7
De amor com você
               A                  B
Na praia, num barco, no farol apagado
                  G#m7                 
Num moinho abandonado
                        C#m7
Em mar grande, alto astral
            A                  B
Lá em Hollywood pra de tudo rolar
                 G#m7                    
Vendo estrelas caindo
                  C#m7         
Vendo a noite passar
        A  B             A  
Eu e você,   na ilha do sol
B             E   
  Na ilha do sol

[Solo 1] E  E4  E  E4  E 

[Tab – Solo 1]

   E              E4               E
E|-12---------12-14--12-----16h17p16--12----|
B|----12-12-------------12---------------12-|
G|------------------------------------------|
D|------------------------------------------|
A|------------------------------------------|
E|------------------------------------------|

      E4
E|-12-14---12h14-12-------------------------|
B|------------------14----------------------|
G|------------------------------------------|
D|------------------------------------------|
A|------------------------------------------|
E|------------------------------------------|

[Solo 2] E  F#m7  E  F#m7
         E  F#m7  E  F#m7

[Primeira Parte]


 E           A    B           E
Tudo começou   há um tempo atrás
            A  B
Na ilha do sol
      E                 A     B     
O destino te mandou de volta para o
     E   A  B
Meu cais

 E           A    B           E
Tudo começou   há um tempo atrás
            A  B
Na ilha do sol
      E                 A     B     
O destino te mandou de volta para o
     E   A  B
Meu cais

[Pré-Refrão]

C#m         G#m           A              
    No coração ficou lembranças
        E    B/D#  C#m
De nós dois
        B                          
Como ferida aberta
 E4      E    E2  E
Como tatuagem

[Refrão]

    A  B             G#m7         
Oh Mi_la, mil e uma noites
               C#m7
De amor com você
               A                  B
Na praia, num barco, no farol apagado
                  G#m7                 
Num moinho abandonado
                        C#m7
Em mar grande, alto astral
            A                  B
Lá em Hollywood pra de tudo rolar
                 G#m7                    
Vendo estrelas caindo
                  C#m7         
Vendo a noite passar
        A  B             A  B
Eu e você,   na ilha do sol
            E  (Frase 1) 
Na ilha do sol

[Tab - Frase 1]

E|------------------------------------------|
B|------------------------------------------|
G|------------------------------------------|
D|-x-6--x-7--x-9----------------------------|
A|-x----x----x------------------------------|
E|-x-4--x-5--x-7----------------------------|

    A  B             G#m7         
Oh Mi_la, mil e uma noites
               C#m7
De amor com você
               A                  B
Na praia, num barco, no farol apagado
                  G#m7                 
Num moinho abandonado
                        C#m7
Em mar grande, alto astral
            A                  B
Lá em Hollywood pra de tudo rolar
                 G#m7                    
Vendo estrelas caindo
                  C#m7         
Vendo a noite passar
        A  B             A  B
Eu e você,   na ilha do sol
            E  
Na ilha do sol

[Final] E  E4  E  E4  
        E  E4  E7M  E4  E

[Tab – Final]

   E              E4               E
E|-12---------12-14--12-----16h17p16--12----|
B|----12-12-------------12---------------12-|
G|------------------------------------------|
D|------------------------------------------|
A|------------------------------------------|
E|------------------------------------------|

      E4
E|-12-14---12h14-12-------------------------|
B|------------------14----------------------|
G|------------------------------------------|
D|------------------------------------------|
A|------------------------------------------|
E|------------------------------------------|

   E              E4              E7M   
E|-12---------12-14--12-----16h17p16--12----|
B|----12-12-------------12---------------12-|
G|------------------------------------------|
D|------------------------------------------|
A|------------------------------------------|
E|------------------------------------------|

       E4               E
E|-12-14---12h14-12-----12------------------|
B|------------------14----------------------|
G|------------------------------------------|
D|------------------------------------------|
A|------------------------------------------|
E|------------------------------------------|
Outros vídeos desta música
495.088 exibições
  • Simplificar cifra
    • ½ Tom
    • A
    • Bb
    • B
    • C
    • Db
    • D
    • Eb
    • E
    • F
    • F#
    • G
    • Ab
  • Adicionar à lista

Afinação da cifra

Afinador online

    0 comentários

    Ver todos os comentários

    Entre para o Cifra Club PRO

    Tenha acesso a benefícios exclusivos no App e no Site

    • Chega de anúncios

    • Mais recursos no app do Afinador

    • Atendimento Prioritário

    • Aumente seu limite de lista

    • Ajude a produzir mais conteúdo

    Cifra Club Pro

    Aproveite o Cifra Club com benefícios exclusivos e sem anúncios
    Cifra Club Pro
    Aproveite o Cifra Club com benefícios exclusivos e sem anúncios
    OK