Cifra Club

Psychosocial

Neto Peña

Cifra: Principal (violão e guitarra)
tom: Ab
Afinação: A  E  A  D  F#  B
Introdução:

(Guitarra 1 - Parte 1)

               H.A                          H.A
E|---------------------------------------------------|
B|---------------------------------------------------|
G|---------------------------------------------------|
D|-------------6~~--------------------------6~~------|
A|---------------------------------------------------|
E|-0--0--5p0-0------0--3h5-0--0-0-0-0-5p0-0----------|

E|---------------------------------------------------|
B|---------------------------------------------------|
G|---------------------------------------------------|
D|--------------------6~~----------------------------|
A|---------------------------------------------------|
E|-0| —3h5-----0-5p0-0-----0-3h5-0-0-5-5-5-5-6-6-6-6---

E|---------------------------------------------------|
B|---------------------------------------------------|
G|---------------------------------------------------|
D|---------------------------------------------------|
A|---------------------------------------------------|
E|-8-8-8-8-7-7-7-7-----------------------------------|

E|---------------------------------------------------|
B|---------------------------------------------------|
G|---------------------------------------------------|
D|-------------6~~--------------------------6~~------|
A|---------------------------------------------------|
E|-0--0--5p0-0------0--3h5-0--0-0-0-0-5p0-0----------|

E|---------------------------------------------------|
B|---------------------------------------------------|
G|---------------------------------------------------|
D|--------------------6~~----------------------------|
A|---------------------------------------------------|
E|-0| —3h5-----0-5p0-0-----0-3h5-0-0-5-5-5-5-6-6-6-6---

E|---------------------------------------------------|
B|---------------------------------------------------|
G|---------------------------------------------------|
D|---------------------------------------------------|
A|---------------------------------------------------|
E|-8-8-8-8-7-7-7-7-5-5-5-5-6-6-6-6-8-8-8-8-7-7-7-7---|

E|---------------------------------------------------|
B|---------------------------------------------------|
G|---------------------------------------------------|
D|---------------------------------------------------|
A|---------------------------------------------------|
E|-5-5-5-5-6-6-6-6-8-8-8-8-7-7-7-7-5..-6..-8..-7..-5~|

(Guitarra 2 - Parte 2)

E|---------------------------------------------------|
B|---------------------------------------------------|
G|---------------------------------------------------|
D|---------------------------------------------------|
A|-6-6-6-6-7-7-7-7-9-9-9-9-8-8-8-8-6..-7..-9..-8..-6~|
E|---------------------------------------------------|

(Parte 2 - 2x)

     P.M.  . .       . .   . .       . .   . .
E|---------------------------------------------------|
B|---------------------------------------------------|
G|---------------------------------------------------|
D|-6-----5-----5h6-6-----5-----5h6-6-----5-----5h6---|
A|-6-----5---0-5h6-6-----5-----5h6-6-----5-----5h6---|
E|-6-0-0-5-0-0-5h6-6-0-0-5-0-0-5h6-6-0-0-5-0-0-5h6---|

E|---------------------------------------------------|
B|---------------------------------------------------|
G|---------------------------------------------------|
D|---------------------------------------------------|
A|-6-5-3-1-3-5-3-2-----------------------------------|
E|-6-5-3-1-3-5-3-2-----------------------------------|

Primeira Parte:

       P.M.      . .   . .       . .   . .
E|---------------------------------------------------|
B|---------------------------------------------------|
G|---------------------------------------------------|
D|-6p5-----5h6-6-----5-----5h6-6-----5-----5h6-------|
A|-6p5-----5h6-6-----5-----5h6-6-----5-----5h6-------|
E|-6p5-0-0-5h6-6-0-0-5-0-0-5h6-6-0-0-5-0-0-5h6-------|

E|---------------------------------------------------|
B|---------------------------------------------------|
G|---------------------------------------------------|
D|---------------------------------------------------|
A|-6-5-3-1-3-5-3-2-----------------------------------|
E|-6-5-3-1-3-5-3-2-----------------------------------|

So abusive fate,
It doesn't cut, this soul is not so vibrant.

     P.M.  . .       . .   . .       . .   . .
E|---------------------------------------------------|
B|---------------------------------------------------|
G|---------------------------------------------------|
D|-6-----5-----5h6-6-----5-----5h6-6-----5-----5h6---|
A|-6-----5-----5h6-6-----5-----5h6-6-----5-----5h6---|
E|-6-0-0-5-0-0-5h6-6-0-0-5-0-0-5h6-6-0-0-5-0-0-5h6---|

E|---------------------------------------------------|
B|---------------------------------------------------|
G|---------------------------------------------------|
D|---------------------------------------------------|
A|-6-5-3-1-3-5-3-2-----------------------------------|
E|-6-5-3-1-3-5-3-2-----------------------------------|

Back at you subversion.
Pseudo-sacrosanct perversion

     P.M.  . .       . .   . .       . .   . .
E|---------------------------------------------------|
B|---------------------------------------------------|
G|---------------------------------------------------|
D|-6-----5-----5h6-6-----5-----5h6-6-----5-----5h6---|
A|-6-----5-----5h6-6-----5-----5h6-6-----5-----5h6---|
E|-6-0-0-5-0-0-5h6-6-0-0-5-0-0-5h6-6-0-0-5-0-0-5h6---|

E|---------------------------------------------------|
B|---------------------------------------------------|
G|---------------------------------------------------|
D|---------------------------------------------------|
A|-6-5-3-1-3-5-3-2-----------------------------------|
E|-6-5-3-1-3-5-3-2-----------------------------------|

Then fill your mouth with all the money you will save.

     P.M.  . .       . .   . .       . .   . .
E|---------------------------------------------------|
B|---------------------------------------------------|
G|---------------------------------------------------|
D|-6-----5-----5h6-6-----5-----5h6-6-----5-----5h6---|
A|-6-----5-----5h6-6-----5-----5h6-6-----5-----5h6---|
E|-6-0-0-5-0-0-5h6-6-0-0-5-0-0-5h6-6-0-0-5-0-0-5h6---|

E|---------------------------------------------------|
B|---------------------------------------------------|
G|---------------------------------------------------|
D|---------------------------------------------------|
A|-6-5-3-1-3-5-3-2-----------------------------------|
E|-6-5-3-1-3-5-3-2-----------------------------------|

I'm done! It has begun, I'm not the only one!


Primeiro Refrão:
Ab5          Eb5       Bb5    G5
    And the rain will kill us all.
C5              Eb5     Ab5
   If throw ourselves against the wall.
     Eb5   Bb5       G5
But no one else can see.

The preservation of the martyr in me.
Passagem 1:
   P.M.    . .   . .       . .   . .       . .   . .
E|---------------------------------------------------|
B|---------------------------------------------------|
G|---------------------------------------------------|
D|---5h6-6-----5-----5h6-6-----5-----5h6-6-----5-----|
A|-0-5h6-6-----5-----5h6-6-----5-----5h6-6-----5-----|
E|-0-5h6-6-0-0-5-0-0-5h6-6-0-0-5-0-0-5h6-6-0-0-5-0-0-|

E|---------------------------------------------------|
B|---------------------------------------------------|
G|---------------------------------------------------|
D|-5h6-----------------------------------------------|
A|-5h6-6-5-3-1-3-5-3-2-------------------------------|
E|-5h6-6-5-3-1-3-5-3-2-------------------------------|

     P.M.  . .       . .   . .       . .   . .
E|---------------------------------------------------|
B|---------------------------------------------------|
G|---------------------------------------------------|
D|-6-----5-----5h6-6-----5-----5h6-6-----5-----5h6---|
A|-6-----5-----5h6-6-----5-----5h6-6-----5-----5h6---|
E|-6-0-0-5-0-0-5h6-6-0-0-5-0-0-5h6-6-0-0-5-0-0-5h6---|

E|---------------------------------------------------|
B|---------------------------------------------------|
G|---------------------------------------------------|
D|---------------------------------------------------|
A|-6-5-3-1-3-5-3-2-----------------------------------|
E|-6-5-3-1-3-5-3-2-----------------------------------|


Segunda Parte:

       P.M.      . .   . .       . .   . .
E|---------------------------------------------------|
B|---------------------------------------------------|
G|---------------------------------------------------|
D|-6p5-----5h6-6-----5-----5h6-6-----5-----5h6-------|
A|-6p5-----5h6-6-----5-----5h6-6-----5-----5h6-------|
E|-6p5-0-0-5h6-6-0-0-5-0-0-5h6-6-0-0-5-0-0-5h6-------|

E|---------------------------------------------------|
B|---------------------------------------------------|
G|---------------------------------------------------|
D|---------------------------------------------------|
A|-6-5-3-1-3-5-3-2-----------------------------------|
E|-6-5-3-1-3-5-3-2-----------------------------------|

But we're the temple fell, the secret death's gone mad.

     P.M.  . .       . .   . .       . .   . .
E|---------------------------------------------------|
B|---------------------------------------------------|
G|---------------------------------------------------|
D|-6-----5-----5h6-6-----5-----5h6-6-----5-----5h6---|
A|-6-----5-----5h6-6-----5-----5h6-6-----5-----5h6---|
E|-6-0-0-5-0-0-5h6-6-0-0-5-0-0-5h6-6-0-0-5-0-0-5h6---|

E|---------------------------------------------------|
B|---------------------------------------------------|
G|---------------------------------------------------|
D|---------------------------------------------------|
A|-6-5-3-1-3-5-3-2-----------------------------------|
E|-6-5-3-1-3-5-3-2-----------------------------------|

The hate was all we had!

     P.M.  . .       . .   . .       . .   . .
E|---------------------------------------------------|
B|---------------------------------------------------|
G|---------------------------------------------------|
D|-6-----5-----5h6-6-----5-----5h6-6-----5-----5h6---|
A|-6-----5-----5h6-6-----5-----5h6-6-----5-----5h6---|
E|-6-0-0-5-0-0-5h6-6-0-0-5-0-0-5h6-6-0-0-5-0-0-5h6---|

E|---------------------------------------------------|
B|---------------------------------------------------|
G|---------------------------------------------------|
D|---------------------------------------------------|
A|-6-5-3-1-3-5-3-2-----------------------------------|
E|-6-5-3-1-3-5-3-2-----------------------------------|

Just look me in the eyes and say I'm wrong!

     P.M.  . .       . .   . .       . .   . .
E|---------------------------------------------------|
B|---------------------------------------------------|
G|---------------------------------------------------|
D|-6-----5-----5h6-6-----5-----5h6-6-----5-----5h6---|
A|-6-----5-----5h6-6-----5-----5h6-6-----5-----5h6---|
E|-6-0-0-5-0-0-5h6-6-0-0-5-0-0-5h6-6-0-0-5-0-0-5h6---|

E|---------------------------------------------------|
B|---------------------------------------------------|
G|---------------------------------------------------|
D|---------------------------------------------------|
A|-6-5-3-1-3-5-3-2-----------------------------------|
E|-6-5-3-1-3-5-3-2-----------------------------------|

I think we're done, I'm not the only one!


Segundo Refrão:
Ab5          Eb5       Bb5    G5
    And the rain will kill us all.
C5              Eb5     Ab5
   If throw ourselves against the wall.
     Eb5   Bb5       G5
But no one else can see.

The preservation of the martyr in me.
Solo:
E|---------------------------------------------------|
B|---------------------------------------------------|
G|---------------7-----------------------------------|
D|--------7h8h10---10-8-7-------------7h8h10-7h8h10--|
A|-6h8h10-----------------10-8-6h8h10----------------|
E|---------------------------------------------------|

E|---------------------------------------------------|
B|--------------------8------------------------------|
G|-------------7h8h10---10-8-7-------------7h8h10----|
D|-10-8-7h8h10-----------------10-8-7h8h10-----------|
A|---------------------------------------------------|
E|---------------------------------------------------|

E|----------------------------8----------------------|
B|-------8-------------8h9h11---11-9-8---------------|
G|-7h810---10-8-7h8h10-----------------10-8-7h8h10---|
D|---------------------------------------------------|
A|---------------------------------------------------|
E|---------------------------------------------------|

E|---------------8-------------8h10h11---------------|
B|-8h9h11-8h9h11---11-9-8h9h11---------9h11h13-------|
G|---------------------------------------------------|
D|---------------------------------------------------|
A|---------------------------------------------------|
E|---------------------------------------------------|

E|-10h11h13-13-11-10---------13-11-10---------10~~---|
B|-------------------13-11-9----------13-11-9--------|
G|---------------------------------------------------|
D|---------------------------------------------------|
A|---------------------------------------------------|
E|---------------------------------------------------|

E|-10h11p10p8-10~~--10h11p10p8-11/15--11--10--8--10~-|
B|---------------------------------------------------|
G|---------------------------------------------------|
D|---------------------------------------------------|
A|---------------------------------------------------|
E|---------------------------------------------------|

E|-10b11r10------------------------------------------|
B|-------------8~-8b9r8------------------------------|
G|-------------------------7~-7b8r7--8--7h8p7--------|
D|--------------------------------------------10--8--|
A|---------------------------------------------------|
E|---------------------------------------------------|

E|-10--11h13--11--10--11--10-----10--11/15-11--10--11|
B|----------------------------11---------------------|
G|---------------------------------------------------|
D|---------------------------------------------------|
A|---------------------------------------------------|
E|---------------------------------------------------|

E|-10h11p10-8--10--11--10~~--------------------------|
B|---------------------------------------------------|
G|----------------------------\8----7~~-8b10r8~-7b8~-|
D|-------------------------------10------------------|
A|---------------------------------------------------|
E|---------------------------------------------------|

E|---------------------------------------------------|
B|---------------------------------------------------|
G|---------------------------------------------------|
D|------------10----------------10h12h13-10h12h13----|
A|-8h10h11/13----13-11-10h11h13----------------------|
E|---------------------------------------------------|

E|---------------------------------------------------|
B|---------------------------------------------------|
G|-10----------------10h12h13-10h12h13-12h13p12p10---|
D|----13-12-10h12h13---------------------------------|
A|---------------------------------------------------|
E|---------------------------------------------------|

E|---------------------------------------------------|
B|---------------------------------------------------|
G|---------------------------------------------------|
D|-13-12-12h13p12p10---------------------------------|
A|-------------------13-11-11h13p11p10\8-11-10-------|
E|---------------------------------------------------|

E|---------------------------------------------------|
B|---------------------------------------------------|
G|---------------------------------------------------|
D|---------------------------------------------------|
A|-10h11p10p8\6-10-8-8h10p8p6~-----------------------|
E|---------------------------------------------------|

E|---------------------------------------------------|
B|---------------------------------------------------|
G|-/12~~-8--8--7h8p7-----8--7h8p7--------------------|
D|-------------------10-----------7--8--7------------|
A|-----------------------------------------8--6--3h5-|
E|---------------------------------------------------|

Ponte:

The limits of the dead! (4x)

(Guitarra 1)
   P.M.   . .    . .   . . . .    . . . .
E|---------------------------------------------------|
B|---------------------------------------------------|
G|---------------------------------------------------| (11x)
D|---------------------------------------------------|
A|---------------------------------------------------|
E|-0-0----0-0----0-0---0-0-0-0----0-0-0-0------------|

E|---------------------------------------------------|
B|---------------------------------------------------|
G|---------------------------------------------------|
D|---------------------------------------------------|
A|---------------------------------------------------|
E|-0-0----0-0----0-0---0-0-0-0-----------------------|

(Guitarra 2)
   P.M.   .  .  . . . .  . . .
E|---------------------------------------------------|
B|---------------------------------------------------|
G|---------------------------------------------------| (3x)
D|---------------------------------------------------|
A|---------------------------------------------------|
E|-0| —4b6--0--0--0-0-0-0--0-0-0-2b3r2-----------------

E|---------------------------------------------------|
B|---------------------------------------------------|
G|---------------------------------------------------|
D|---------------------------------------------------|
A|---------------------------------------------------|
E|-0--4b6--0--0--0-0-0-0-----------------------------|

Terceira Parte:

   P.M..   . .   . .       . .   . .       . .   . .
E|---------------------------------------------------|
B|---------------------------------------------------|
G|---------------------------------------------------|
D|-------6-----5-----5h6-6-----5-----5h6-6-----5-----|
A|-0-5-0-6-----5-----5h6-6-----5-----5h6-6-----5-----|
E|-0-5-0-6-0-0-5-0-0-5h6-6-0-0-5-0-0-5h6-6-0-0-5-0-0-|

E|---------------------------------------------------|
B|---------------------------------------------------|
G|---------------------------------------------------|
D|-5h6-----------------------------------------------|
A|-5h6-6-5-3-1-3-5-3-2-------------------------------|
E|-5h6-6-5-3-1-3-5-3-2-------------------------------|

I tried to tell you but, (Psychosocial)
Your purple hearts are giving out. (Psychosocial)

     P.M.  . .       . .   . .       . .   . .
E|---------------------------------------------------|
B|---------------------------------------------------|
G|---------------------------------------------------|
D|-6-----5-----5h6-6-----5-----5h6-6-----5-----5h6---|
A|-6-----5-----5h6-6-----5-----5h6-6-----5-----5h6---|
E|-6-0-0-5-0-0-5h6-6-0-0-5-0-0-5h6-6-0-0-5-0-0-5h6---|

E|---------------------------------------------------|
B|---------------------------------------------------|
G|---------------------------------------------------|
D|---------------------------------------------------|
A|-6-5-3-1-3-5-3-2-----------------------------------|
E|-6-5-3-1-3-5-3-2-----------------------------------|

If it's hunting season. (Psychosocial)
Is this what you want? (Psychosocial)
I'm not the only one!


Terceiro Refrão 2x:
Ab5          Eb5       Bb5    G5
    And the rain will kill us all.
C5              Eb5     Ab5
   If throw ourselves against the wall.
     Eb5   Bb5       G5
But no one else can see.

The preservation of the martyr in me.
Final:

(Guitarra 1)
   P.M.. . . . . . . . . . . . . .
E|---------------------------------------------------|
B|---------------------------------------------------|
G|---------------------------------------------------|
D|-0-0-7-7-0-0-0-0-5-5-8-8-4-4-7-7-------------------|
A|---------------------------------------------------|
E|---------------------------------------------------|

E|---------------------------------------------------|
B|---------------------------------------------------|
G|---------------------------------------------------|
D|-0-0-7-7-0-0-0-0-5-5-8-8-5~~-----------------------|
A|---------------------------------------------------|
E|---------------------------------------------------|

(Guitarra 2)
   P.M.. . . . . . . . .  .  . . . .
E|---------------------------------------------------|
B|---------------------------------------------------|
G|---------------------------------------------------|
D|---------------------------------------------------|
A|-----8-8-5-5-5-5-6-6-10-10-5-5-8-8-----------------|
E|-0-0-----------------------------------------------|

E|---------------------------------------------------|
B|---------------------------------------------------|
G|---------------------------------------------------|
D|---------------------------------------------------|
A|-----8-8-5-5-5-5-6-6-10-10-5~~---------------------|
E|-0-0-----------------------------------------------|

   P.M. . .  . .  . .  . . . .  . . .
E|---------------------------------------------------|
B|---------------------------------------------------|
G|---------------------------------------------------| (3x)
D|---------------------------------------------------|
A|---------------------------------------------------|
E|-0-0--0-0--0-0--0-0--0-0-0-0--0-0-0-2b3r2----------|
The limits of the dead! (2x)

   P.M. . .  . .  . .  . . . .
E|---------------------------------------------------|
B|---------------------------------------------------|
G|---------------------------------------------------|
D|---------------------------------------------------|
A|---------------------------------------------------|
E|-0-0--0-0--0-0--0-0--0-0-0-0-----------------------|
00:00 / 00:00
Outros vídeos desta música
Repetir
Outros vídeos desta música
Composição de Chris Fehn / Christopher Fehn / Corey Taylor / Craig Jones / James Root / Michael Crahan / Mickael Thomson / Nathan Jordison / Paul Gray / Sid Wilson / Sidney Wilson
Colaboração e revisão:
  • Saulo Alencar
14 exibições
    • ½ Tom
    • A
    • Bb
    • B
    • C
    • Db
    • D
    • Eb
    • E
    • F
    • F#
    • G
    • Ab
  • Adicionar à lista

    0 comentários

    Ver todos os comentários

    Conseguiu tocar?

    0 Tocaram 0 Ainda não

    Grave um vídeo tocando Psychosocial e nos envie!

    00:00 / 00:00

    Cifra Club Pro

    Aproveite o Cifra Club com benefícios exclusivos e sem anúncios
    Cifra Club Pro
    Aproveite o Cifra Club com benefícios exclusivos e sem anúncios
    OK