Cifra Club

Dare4distance

NeverShoutNever!

Cifra: Principal
exibições 23.726
Tom: E
 I got the concept and came into the conclusion...
E |------------0------------0------------0-------------0----------------|
B |------------0------------0------------0-------------0----------------|
G |------------9------------9------------9-------------9----------------|
D |------------9------------9------------9-------------9----------------|
A |------------7------------6------------x-------------x----------------|
E |------------0------------0------------9-------------7----------------|

   You appeared right in front of me...
E |------------0------------0------------0-------------0----------------|
B |------------0------------0------------0-------------0----------------|
G |------------9------------9------------9-------------9----------------|
D |------------9------------9------------9-------------9----------------|
A |------------7------------6------------x-------------x----------------|
E |------------0------------0------------9-------------7----------------|

     although the distance is daring we both know how to drive
E |-------------------0-------------------0-----------------0-----------|
B |-------------------0-------------------0-----------------0-----------|
G |-------------------6-------------------4-----------------0-----------|
D |-------------------6-------------------4-----------------2-----------|
A |-------------------4-------------------2-----------------2-----------|
E |-------------------0-------------------0-----------------0-----------|

Chorus

  we can't make up for the lost times...
E |---0---------0---------0-----------0-------0--------0--------------|
B |---0---------0---------0-----------0-------0--------0--------------|
G |---1---------4---------2-----------1-------4--------2--------------|
D |---2---------4---------2-----------2-------4--------2--------------|
A |---2---------2---------0-----------2-------2--------0--------------|
E |---0---------0---------0-----------0-------0--------0--------------|

  is the center of my day
E |---------0--------0------0-----------------------------------------|
B |---------0--------0------0-----------------------------------------|
G |---------6--------4------2-----------------------------------------|
D |---------6--------4------2-----------------------------------------|
A |---------4--------2------0-----------------------------------------|
E |---------0--------0------0-----------------------------------------|

Verse 2

E |------------0--xxxxxxxx--0--xxxxxxxx--0--xxxxxxxx--0--xxxxxxxx------|
B |------------0--xxxxxxxx--0--xxxxxxxx--0--xxxxxxxx--0--xxxxxxxx------|
G |------------9--xxxxxxxx--9--xxxxxxxx--9--xxxxxxxx--9--xxxxxxxx------|
D |------------9--xxxxxxxx--9--xxxxxxxx--9--xxxxxxxx--9--xxxxxxxx------|
A |------------7--xxxxxxxx--6--xxxxxxxx--x--xxxxxxxx--x--xxxxxxxx------|
E |------------0--xxxxxxxx--0--xxxxxxxx--9--xxxxxxxx--7--xxxxxxxx------|

E |------------0--xxxxxxxx--0--xxxxxxxx--0--xxxxxxxx--0--xxxxxxxx------|
B |------------0--xxxxxxxx--0--xxxxxxxx--0--xxxxxxxx--0--xxxxxxxx------|
G |------------9--xxxxxxxx--9--xxxxxxxx--9--xxxxxxxx--9--xxxxxxxx------|
D |------------9--xxxxxxxx--9--xxxxxxxx--9--xxxxxxxx--9--xxxxxxxx------|
A |------------7--xxxxxxxx--6--xxxxxxxx--x--xxxxxxxx--x--xxxxxxxx------|
E |------------0--xxxxxxxx--0--xxxxxxxx--9--xxxxxxxx--7--xxxxxxxx------|

     although the distance is daring we both know how to drive
E |-------------------0-------------------0-----------------0-----------|
B |-------------------0-------------------0-----------------0-----------|
G |-------------------6-------------------4-----------------0-----------|
D |-------------------6-------------------4-----------------2-----------|
A |-------------------4-------------------2-----------------2-----------|
E |-------------------0-------------------0-----------------0-----------|

Chorus

  we can't make up for the lost times...
E |---0---------0---------0-----------0-------0--------0--------------|
B |---0---------0---------0-----------0-------0--------0--------------|
G |---1---------4---------2-----------1-------4--------2--------------|
D |---2---------4---------2-----------2-------4--------2--------------|
A |---2---------2---------0-----------2-------2--------0--------------|
E |---0---------0---------0-----------0-------0--------0--------------|

  is the center of my day          your the center of my day
E |---------0--------0------0--------0-------0------0-----------------|
B |---------0--------0------0--------0-------0------0-----------------|
G |---------6--------4------2--------6-------4------2-----------------|
D |---------6--------4------2--------6-------4------2-----------------|
A |---------4--------2------0--------4-------2------0-----------------|
E |---------0--------0------0--------0-------0------0-----------------|

Bridge

   Mondays i sleep away tuesdays i lay awake...
E |---0-------0-------0-------0-------0-------0-------0-------0-----|
B |---0-------0-------0-------0-------0-------0-------0-------0-----|
G |---1-------4-------6-------2-------1-------4-------6-------2-----|
D |---2-------4-------6-------2-------2-------4-------6-------2-----|
A |---2-------2-------4-------0-------2-------2-------4-------0-----|
E |---0-------0-------0-------0-------0-------0-------0-------0-----|

Ending

     although the distance is daring i sure know what its like to be alone
E |------------------0------------------0----------------0----------|
B |------------------0------------------0----------------0----------|
G |------------------6------------------4----------------2----------|
D |------------------6------------------4----------------2----------|
A |------------------4------------------2----------------0----------|
E |------------------0------------------0----------------0----------|
Acordes para:
    Composição: Christofer DrewColaboração e revisão:
    • Raphael Silva

    0 comentários

      mostrar mais comentários

      Conseguiu tocar?

      8tocaram0ainda não

      Grave um vídeo tocando Dare4distance e mande pra gente!

      00:00 / 00:00
      outros vídeos desta música
      repetirqualidadeautomática
      Outro vídeos desta música
        00:00 / 00:00
        automática
        OK