Cifra Club

Boulders

New Found Glory

Cifra: Principal (violão e guitarra)
Tom: G
Introdução - (Introduction)

Riff 1
e----------------------------------  |
b----------------------------------  |
g---0-0-0-0-0-0-0-0-0-0-0-0-0-0-0-0  |  3x
d--2-2-2-2-0-0-0-0-----------------  |
a------------------3-3-3-3-3-3-3-3-  |
e----------------------------------  |
  
Esse solo na verdade é o piano que faz, mas se quiserem tentar com duas guitarras...:
(This riff in the truth is the piano that makes, but if to want to try with two guitars )

(entra depois que faz a primeira rodada do riff anterior)
(it enters later that it makes the first round of riff previous)
Riff 2
e----------------------------------  |
b----------------------------------  |
g-5-5/4-4-4-2-0--7-7/4-4-4-2-0-----  | 4x
d----------------------------------  |
a----------------------------------  |
e----------------------------------  |

E  
I feel locked away
D                                   C
with the weight of the world on my shoulders
                        E
crushing on my head are boulders
         D        C
made of lies and dust from all of us

E                             D
what of the bonds we've made
                         C
that have started to fade

we can't control the time
                    E               D             C
but right now I'll take what I can get out of my life

|Refrão|
G        D       C
medicate me again

so I fall away
E        D       C
medicate me now

so I fall away

E
I feel torn between
D                          C
two different sides of an opinion
                            E
don't know what state I've been in
         D         C
don't believe in trust, for only one of us

E                       D  
what of the progess made
                         C
that night we all forgave

it was a thought out crime
                E                D               C
but you should take what you can get out of this life

|Refrão| (choir)
G        D       C
medicate me again

so I fall away
E        D       C
medicate me now

so I fall away

Riff 3
         1ª parte. (r3)(1st part.)
e---------------------------------------------------------------
b---------------------------------------------------------------
g---------------------------------------------------------------
d---9/10-9/7---9/10-9/7---9/10-9---12--12-12--------------------
a------------10---------10-------10----------10--10-10-10--10-10
e---------------------------------------------------------------
| |- - - - - | |continuação| | - - - - -| |(continuation)
         2ª parte. (r3)(2nd part.)
e---------------------------------------------------------------
b---------------------------------------------------------------
g--12-12-12-14-14-16-16---------14-14-16-16---------14-14-12-12-
d-----------------------14-14-14-----------12-12-12-------------
a---------------------------------------------------------------
e---------------------------------------------------------------
| |- - - - - | |continuação| | - - - - -| |(continuation)
         3ª parte. (r3) (3rd part.)
e-----------------------------------------------------------------
b-----------------------------------------------------------------
g-----------------------------------------------------------------
d--10-9---12-12-9-----10-10-9-----9/10-9/7------------------------
a-------10----------10----------10-------------10-----------------
e-----------------------------------------------------------------

       (logo quando acabar aqui já pula pra 1ª parte do solo)
   (soon when to finish here already polishes for 1ª part of the riff )

(esse solo se repete 2x)
(this riff if repeats 2x)


|Refrão|(choir)
G        D       C
medicate me again

so I fall away
E        D       C
medicate me now

so I fall away

(um coral cantando:"Sem instrumento!") (a chorale singing: "Without instrument"!)
I never said that I didn't need you
put down your arms
and wrap them both right around me
right around me

G                 D                 C  |
I never said that I didn't need you    |
                                       | 
put down your arms                     |  3x
                  E         D     C    |
and wrap them both right around me     |
                                       |
right around me                        |

Riff 4
                       1ª parte. (r4) (1st part.)
e------------14/15-15-15-14-12-12/14-10-----------------------------------------------
b-------------------------------------------15-13-12-10-8-10-10/12--12/13-12-12-10-10-
g---12-12-12-----------------------------12-------------------------------------------
d-------------------------------------------------------------------------------------
a-------------------------------------------------------------------------------------
e-------------------------------------------------------------------------------------
| |- - - - - | |continuação| | - - - - -| |(continuation)
                       2ª parte. (r4) (2nd part.)
e-------------------------------------------------------------------------------
b---12-----15-15-----13-13-------12/13--12-10-----------------------------------
g-----12-12-----12-12-----12-12---------------12--12-12-12-12-12-11--9-9/11-7---
d-------------------------------------------------------------------------------
a----------------------------------------------------------------------------10-
e-------------------------------------------------------------------------------
| |- - - - - | |continuação| | - - - - -| |(continuation)
                       3ª parte. (r4) (3rd part.)
e-------------------------------------------------------------------------------
b-------------------------------------------------------------------------------
g-------------------------------------------------------------------------------
d--12-10-9--7-5-7-7/9--10-9-9-7--7------9-10-9-7--7/9---------------------------
a-----------------------------------10-----------------10-----------------------
e-------------------------------------------------------------------------------
exibições 1.558
Acordes para:
    Composição: New Found Glory Colaboração e revisão:
    • Hélder Hartuique

    0 comentários

    mostrar mais comentários

    Conseguiu tocar?

    0 tocaram 0 ainda não

    Grave um vídeo tocando Boulders e mande pra gente!

    00:00 / 00:00
    outros vídeos desta música
    repetir qualidade Automático
    Outros vídeos desta música
    00:00 / 00:00
    Automático
    OK