Cifra Club

Dressed to kill

New Found Glory

Cifra: Principal (violão e guitarra)
Tom: E
Drop D Tuning 

Intro: 
e |----------------| 
B |----------------| 
G |----------------| 
D |-0-0--2-2-------| 
A |-0-0--2-2-------| 
D |-0-0--2-2-------| 

e |-----------------------------------------------------------| 
B |-----------------------------------------------------------| 
G |-----------------------------------------------------------| 
D |---7-7-7-7--7-7-7-7--4-4-4-4--0-0--2-2-----------7---------|  x2 
A |---7-7-7-7--7-7-7-7--4-4-4-4--0-0--2-2-----------7---------| 
D |---7-7-7-7--6-6-6-6--4-4-4-4--0-0--2-2-----------7---------| 
     (last time) 

Lead Guitar: 
e |------12--10--9---| 
B |--10--------------| 
G |------------------| 
D |------------------| 
A |------------------| 
D |------------------| 

Verse (x4): (palm mute first three times) 
e |----------------------------------------| 
B |----------------------------------------| 
G |----------------------------------------| 
D |---7-7-7-7--7-7-7-7--4-4-4-4--2-2-2-2---| 
A |---7-7-7-7--7-7-7-7--4-4-4-4--2-2-2-2---| 
D |---7-7-7-7--6-6-6-6--4-4-4-4--2-2-2-2---| 

Prechorus (x4): 
e |------------------------------| 
B |------------------------------| 
G |------------------------------| 
D |---0-0-0-0--4-4--2-2-----2----| 
A |---0-0-0-0--4-4--2-2-----2----| 
D |---0-0-0-0--4-4--2-2-----2----| 
     (last time) 

Chorus (x4): 
e |-----------------------------------------------------------| 
B |-----------------------------------------------------------| 
G |-----------------------------------------------------------| 
D |---7-7-7-7--7-7-7-7--4-4-4-4--0-0--2-2-----------7---------|  
A |---7-7-7-7--7-7-7-7--4-4-4-4--0-0--2-2-----------7---------| 
D |---7-7-7-7--6-6-6-6--4-4-4-4--0-0--2-2-----------7---------| 
     (last time) 

Lead Guitar: (comes in the third time the chorus is played) 
e |------12--10--9---| 
B |--10--------------| 
G |------------------| 
D |------------------| 
A |------------------| 
D |------------------| 

Verse 2 (x4): (same as verse) 

Prechorus 2 (x4): (same as prechorus)  

Chorus 2 (x4): 
e |-----------------------------------------------------------| 
B |-----------------------------------------------------------| 
G |-----------------------------------------------------------| 
D |---7-7-7-7--7-7-7-7--4-4-4-4--0-0--2-2---------------------|  
A |---7-7-7-7--7-7-7-7--4-4-4-4--0-0--2-2---------------------| 
D |---7-7-7-7--6-6-6-6--4-4-4-4--0-0--2-2---------------------| 
      
Lead Guitar: (comes in the third time the chorus is played) 
e |------12--10--9---| 
B |--10--------------| 
G |------------------| 
D |------------------| 
A |------------------| 
D |------------------| 

Bridge/Outro: 
e |----------------------| 
B |----------------------| 
G |----------------------| 
D |---4--2--4--6--7------| 
A |---4--2--4--6--7------| 
D |---4--2--4--6--7------| 

Breakdown (x4): 
e |---------------------------------------------| 
B |---------------------------------------------| 
G |---------------------------------------------| 
D |---7--7--0-0-0-0-0-0-0----------0------------| 
A |---7--7--0-0-0-0-0-0-0----------0------------| 
D |---7--6--0-0-0-0-0-0-0----------0------------| 
(last time) 

Chorus 3 (x4): (same as chorus 2) 

Bridge/Outro 2: (same as bridge/outro) 
exibições 11.773
Acordes para:
    Composição: New Found Glory Colaboração e revisão:
    • Leandro Bitencourt

    0 comentários

    mostrar mais comentários

    Conseguiu tocar?

    0 tocaram 0 ainda não

    Grave um vídeo tocando Dressed to kill e mande pra gente!

    00:00 / 00:00
    outros vídeos desta música
    repetir qualidade Automático
    Outros vídeos desta música
    00:00 / 00:00
    Automático
    OK