Cifra Club

Failures Not Flattering

New Found Glory

Tab de baixo: Principal
Album:Catalyst

Tabbed by Kyle Gayne

Intro(bass enters at 0:13)
G:----------------------------------|
D:----------------------------------|
A:-555555---------------------------|x2
E:-------33333333330000003333333333-|

Verse
G:----------------------------------|
D:----------------------------------|
A:-55555555--------2222-------------|x3
E:---------33333333----555533333333-|

G:----------------------------------|
D:----------------------------------|
A:-55555555--------2222-------------|x1
E:---------33333333----555533333-5--|

Pre Chorus
G:----------------------------------|
D:----------------------------------|
A:----------------------------------|x1
E:-77777777-7773-5-77777777~~~~-----|

Chorus
G:------------------------------------------------------------------|
D:------------------------------------------------------------------|
A:-55555577------------------------55555577-------------------------|x1
E:---------33333333777777555555223~--------333333337777775555555555-|

Repeat:
Intro
Verse
Pre Chorus
Chorus

Bridge
G:----------------------------------|
D:----------------------------------|
A:-5~-55----------------------------|x3
E:-------3~-33333330~-00-3~-3333333-|

G:----------------------------------|
D:----------------------------------|
A:-5~-55----------------------------|x1
E:-------3~-33333330~-00-3~-3333-5--|

G:------------------------------------------------------------------|
D:------------------------------------------------------------------|
A:------------------------------------------------------------------|x1
E:-77777777-7773-5-77777777-7773-5-77777777-7773-5-77777777~~~~-----|

Rest until 2:49

G:------------------|
D:------------------|
A:------------------|x1
E:-777---555---223~-|

Repeat:
Chorus x2

Outro
G:----------------------------------|  |----------------------------------|
D:----------------------------------|  |----------------------------------|
A:-555555---------------------------|x4|-5~~~~~~~-------------------------|x1
E:-------33333333330000003333333333-|  |----------------------------------|
exibições 309
Composição: New Found Glory

0 comentários

mostrar mais comentários

Conseguiu tocar?

0 tocaram 0 ainda não

Grave um vídeo tocando Failures Not Flattering e mande pra gente!

00:00 / 00:00
outros vídeos desta música
repetir qualidade Automático
Outros vídeos desta música
00:00 / 00:00
Automático
OK