Cifra Club

Head on collision

New Found Glory

Cifra: Principal (violão e guitarra)
Tom: D
i tried doing my best with both guitar parts it sounds pretty close...

KEY:
. = pm
x = dead string
p = pull off
h = hammer on

------------------------------------------------------------------------------
------------------------------------------------------------------------------
-------x2--------2-2-2-2-2-4-4-4-4-4-4-4-7-7-7-6-6-6-7-7-7-6-6-6-6-6-6-6------
-----------------2-2-2-2-2-4-4-4-4-4-4-4-x-x-x-x-x-x-x-x-x-x-x-x-x-x-x-x--2x--
-5-4-5-7-5-4-5-4-0-0-0-0-0-2-2-2-2-2-2-2-5-5-5-4-4-4-5-5-5-4-4-4-4-4-4-4------
------------------------------------------------------------------------------
 guitar I  Intro (0:00)                  ^^second ending ->first part of intro            

------------------------------------------------------------------------------
------------------------------------------------------------------------------
-----------------2-2-2-2-2-4-4-4-4-4-4-4-7-7-7-7-7-7-7-7-7-7-7-7-7-7-7-7------
-----------------2-2-2-2-2-4-4-4-4-4-4-4-7-7-7-7-7-7-7-7-7-7-7-7-7-7-7-7--2x--
-----------------0-0-0-0-0-2-2-2-2-2-2-2-5-5-5-5-5-5-5-5-5-5-5-5-5-5-5-5------
------------------------------------------------------------------------------
 guitar II Intro (0:03)                                                       

-------------------------------||---------------------------------------------
-------------------------------||---------------------------------------------
-2--2-2----------2--2-2--------||*-2-2-2-2-2-2-2-2-2-2-2-2--------------------
-2--2-2--4--4-4--2--2-2--------||*-2-2-2-2-2-2-2-2-2-2-2-2-4-4-4-4-4-4-4-4-4--
-0--0-0--4--4-4--0--0-0--4--4-4||--0-0-0-0-0-0-0-0-0-0-0-0-4-4-4-4-4-4-4-4-4--
---------2--2-2----------2--2-2||--------------------------2-2-2-2-2-2-2-2-2--
 guitar I & II verse (0:15)        (0:26)                                     

-------||---------------------------------------------------------------------
-------||---------------------------------------------------------------------
------*||2x-------------------------------------------------------------------
-4-4-4*||---22222222222222222222222222222222----------------------------------
-4-4-4-||---22222222222222222222222222222222----------------------------------
-2-2-2-||---00000000000000000000000000000000----------------------------------
  guitar I & II pre-chorus (0:38)    .......   chorus is intro x2 (0:44)      

---------------------|-----------------------------||-------------------------
---------------------|-----------------------------||-------------------------
------6---9---6-6h7p6|----------------------------*||4x-----------------------
-77-7---7---7--------|77-7p0-9p0-7p0-66-6h7-66-6h7*||-------------------------
---------------------|-----------------------------||-------------------------
---------------------|-----------------------------||-------------------------
 .. solo (2:01)       ..             ..     ..                                  
    guitar I
------------------------------------------------------------------------------
------------------------------------------------------------------------------
-7-7-7-7-7-7-7-7---------------7-7-7-7-7-7-7-7---------------7-7-7-7-7-7-7-7--
-7-7-7-7-7-7-7-7-66-6h7-66-6h7-7-7-7-7-7-7-7-7-66-6h7-66-6h7-7-7-7-7-7-7-7-7--
-5-5-5-5-5-5-5-5---------------5-5-5-5-5-5-5-5---------------5-5-5-5-5-5-5-5--
------------------------------------------------------------------------------
 (2:25)          ..     ..                     ..     ..                      

------------------------------------------------------------------------------
------------------------------------------------------------------------------
------------------------------------------------------------------------------
-2222222222222222-22-2-222-2-222----------------------------------------------
-2222222222222222-22-2-222-2-222----------------------------------------------
-0000000000000000-00-0-000-0-000----------------------------------------------
 (2:34)           .. . ... . ...   chorus 2ce(2nd time w/first half of solo)     

------------------------------------------------------------------------------
------------------------------------------------------------------------------
-2-2-------4-4-4-4-4-4-7-7-7-6-6-6-7-7-7-6-6-6-xxxx---------------------------
-2-2-------4-4-4-4-4-4-x-x-x-x-x-x-x-x-x-x-x-x-xxxx---------------------------
-0-0-------2-2-2-2-2-2-5-5-5-4-4-4-5-5-5-4-4-4-xxxx-5-4-5-7-5-4-5-4-5-4-5-7---
------------------------------------------------------------------------------
 outro guitar I  (3:24)                                                       

------------------------------------------------------------------------------
------------------------------------------------------------------------------
---------2--------------------------------------------------------------------
---------2--------------------------------------------------------------------
-5-4-5-4-0--------------------------------------------------------------------
------------------------------------------------------------------------------
                                                                              

------------------------------------------------------------------------------
------------------------------------------------------------------------------
-2-2-------4-4-4-4-4-4-7-7-7-6-6-6-7-7-7-6-6-6-xxxx-7-7-7-7-7-7-7-7-7-7-7-7---
-2-2-------4-4-4-4-4-4-x-x-x-x-x-x-x-x-x-x-x-x-xxxx-7-7-7-7-7-7-7-7-7-7-7-7---
-0-0-------2-2-2-2-2-2-5-5-5-4-4-4-5-5-5-4-4-4-xxxx-5-5-5-5-5-5-5-5-5-5-5-5---
------------------------------------------------------------------------------
 outro guitar II (3:24)                                                       

------------------------------------------------------------------------------
------------------------------------------------------------------------------
-7-7-7-7-2--------------------------------------------------------------------
-7-7-7-7-2--------------------------------------------------------------------
-5-5-5-5-0--------------------------------------------------------------------
------------------------------------------------------------------------------
exibições 10.510
Acordes para:
    Composição: New Found Glory

    0 comentários

    mostrar mais comentários

    Conseguiu tocar?

    1 tocaram 0 ainda não

    Grave um vídeo tocando Head on collision e mande pra gente!

    00:00 / 00:00
    outros vídeos desta música
    repetir qualidade Automático
    Outros vídeos desta música
    00:00 / 00:00
    Automático
    OK