Cifra Club

Second To Last

New Found Glory

Tab de baixo: Principal

Intro:


-------------------------------------------------------------|
-------------------------------------------------------------|   x2
-------------------------------------------------------------|
---0--000--7--555--7--000--7--999--7--000--7--555--7--44--55-|


Verse:


--------------------------------------------------------------|
--------------------------------------------------------------|
--------------------------------------------------------------|
---00000--7--0--5--000--9--0--77--00000--7--0--5--000--99--77-|


-----------------------------------------------------|
-----------------------------------------------------|   x2
-----------------------------------------------------|
---00000--7--0--5--000--9--0--77--00000--7--0--55555-|


Change:


--------------------------------------------|
--------------------------------------------|   x3
--------------------------------------------|
---00--55--00-0--99--77--00--55--77--99--77-|


-------------------------|
-------------------------|   x1
---222--444--666666------|
-------------------------|


(then back to intro and play everything over again)


Outro:


------------------------------------------|
------------------------------------------|   x2
------------------------------------------|
---0000--55--0000--55--0000--55--7777--55-|
exibições 256
Composição: New Found Glory

0 comentários

mostrar mais comentários

Conseguiu tocar?

0 tocaram 0 ainda não

Grave um vídeo tocando Second To Last e mande pra gente!

00:00 / 00:00
outros vídeos desta música
repetir qualidade Automático
Outros vídeos desta música
00:00 / 00:00
Automático
OK