Cifra Club

Sincerely Me

New Found Glory

Cifra: Principal (violão e guitarra)
Tom: C
Bass Intro: 
 
G|------------------------------4--------------------------------------------| 
D|------4-5-------4-5-----4-4-5---5------------------------------------------| 
A|------------00-------55----------------------------------------------------| 
E|---33----------------------------------------------------------------------| 

Verse: 
"Dear your name here........" 
e|---------------------------------------------------------------------------| 
B|---------------------------------------------------------------------------| 
G|---------------------------------------------------------------------------| 
D|--7------------------------------------------------------------------------| 
A|--7---Let Ring-------------------------------------------------------------| 
E|--9------------------------------------------------------------------------| 
|----PM----| 
Chorus: 
"So can you see......" 
e|---------------------------------------------------------------------------| 
B|---------------------------------------------------------------------------| 
G|------------------5555555--------------------------------------------------| 
D|----5-5----7-7----5555555--------------------------------------------------| 
A|----5-5----7-7----3333333--------------------------------------------------| 
E|----3-3----5-5-------------------------------------------------------------| 

Post Chorus: 
" And i'm as good as dead....." 
e|---------------------------------------------------------------------------| 
B|---------------------------------------------------------------------------| 
G|----------------------------5-5-5-5-5-5-5-5--------------------------------| 
D|------5-5-5------4-4-4------5-5-5-5-5-5-5-5----x3------5-5-----------------| 
A|------5-5-5------4-4-4------3-3-3-3-3-3-3-3------------5-5-----------------| 
E|------3-3-3------2-2-2---------------------------------3-3-----------------| 
|-----------------PM----------------------| 

REPEAT VERSE 

Chorus: x2 (second time guitar two plays) 

guitar two (fill one) 
e|----11p9-999999-x3-----7557553---------------------------------------------| 
B|---------------------------------------------------------------------------| 
G|---------------------------------------------------------------------------| 
D|---------------------------------------------------------------------------| 
A|---------------------------------------------------------------------------| 
E|---------------------------------------------------------------------------| 

REPEAT POST CHORUS 

Bridge: 
"This.......is all........i have.......to say......" 
guitar one 
e|---------------------------------------------------------------------------| 
B|---------------------------------------------------------------------------| 
G|------------------------------------5555555555555555-----------------------| 
D|--5555555555555555-7777777777777777-5555555555555555-----------------------| 
A|--5555555555555555-7777777777777777-3333333333333333-----------------------| 
E|--3333333333333333-5555555555555555----------------------------------------| 
|----PM----| |----PM----| |----PM----| 

e|---------------------------------------------------------------------------| 
B|---------------------------------------------------------------------------| 
G|-----------------------5---------------------------------------------------| 
D|---5-5-5-5-----5-5-5-5-5------5-5-5-5----5-5-5-5-7-------------------------| 
A|---5-5-5-5-----5-5-5-5-3------5-5-5-5----5-5-5-5-7-------------------------| 
E|---3-3-3-3-----3-3-3-3--------3-3-3-3----3-3-3-3-5-------------------------| 

guitar two (fill two) 
e|---------------------------------------------------------------------------| 
B|---------------------------------------------------------------------------| 
G|-------7-7-7-6-6-6-4-4-6-6-6-6-6-6-6---------------------------------------| 
D|---------------------------------------------------------------------------| 
A|---------------------------------------------------------------------------| 
E|---------------------------------------------------------------------------|
exibições 3.549
Acordes para:
    Composição: New Found Glory Colaboração e revisão:
    • Otávio DP
    • Marcelo Pienteado

    0 comentários

    mostrar mais comentários

    Conseguiu tocar?

    0 tocaram 0 ainda não

    Grave um vídeo tocando Sincerely Me e mande pra gente!

    00:00 / 00:00
    outros vídeos desta música
    repetir qualidade Automático
    Outros vídeos desta música
    00:00 / 00:00
    Automático
    OK