Cifra Club

That thing you do

New Found Glory

Cifra: Principal (violão e guitarra)
Tom: E
Tunning: EBGDAE
Key:
G.1-Guitar 1
G.2-Guitar 2
~-hold note
x-mute
m-palm mute
/-slide up
Intro
G.1
E------4-2-0--------------
B------------0-2-2-2-2-2--
G-------------------------
D--2~~~-------------------
A--2~~~-------------------
E--0~~~-------------------
G.2
E-------------------------
B-------------------------
G-------------------------
D--2~~~~~~~~~~-2-2-2-2-2--
A--2~~~~~~~~~~-2-2-2-2-2--
E--0~~~~~~~~~~-0-0-0-0-0--
Verse Riff 1
G.1
E--------0-0-0-0-0------------------
B--------0-0-0-0-0------------------
G------------------2-2-2-2-4-4-4-4--
D--2-2-2-----------2-2-2-2-4-4-4-4--
A--2-2-2-----------0-0-0-0-2-2-2-2--
E--0-0-0----------------------------
G.2
E-----------------------------------
B-----------------------------------
G------------------2-2-2-2-4-4-4-4--
D--2-2-2-2-2-2-2-2-2-2-2-2-4-4-4-4--
A--2-2-2-2-2-2-2-2-0-0-0-0-2-2-2-2--
E--0-0-0-0-0-0-0-0------------------
Verse Riff 2 (Both Guitars)
E-------------------------------------------------------------------
B-------------------------------------------------------------------
G--6-6-6-6-6-6-6-6-----------------7-7-7-7-7-7-7-7-4-4-4-4-4-4-4-4--
D--6-6-6-6-6-6-6-6-4-4-4-4-4-4-4-4-7-7-7-7-7-7-7-7-4-4-4-4-4-4-4-4--
A--4-4-4-4-4-4-4-4-4-4-4-4-4-4-4-4-5-5-5-5-5-5-5-5-2-2-2-2-2-2-2-2--
E------------------2-2-2-2-2-2-2-2----------------------------------
Chorus                                               |1st chorus only|
E--------------------------------------------------------------------
B--------------------------------------------------------------------
G--6-x-x-6-x-6----------------4--2---------2--4-------4-4-4-4-4-4-4--
D--6-x-x-6-x-6-4-x-x-4-x-4-2--4--2--4--2~~~2--4--2~~~-4-4-4-4-4-4-4--
A--4-x-x-4-x-4-4-x-x-4-x-4-2--2--0--4--2~~~0--2--2~~~-2-2-2-2-2-2-2--
E--------------2-x-x-2-x-2-0--------2--0~~~------0~~~----------------






Fill
   m m m m m m m   m   m   m   m       m   m   m   m      
E--------------------------------------------------------
B--------------------------------------------------------
G----------------6-6-6-6-6-6-6-6-6-6---------------------
D--7-7-7-7-7-7-7-6-6-6-6-6-6-6-6-6-6-4-4-4-4-4-4-4-4-4-4-
A--7-7-7-7-7-7-7-4-4-4-4-4-4-4-4-4-4-4-4-4-4-4-4-4-4-4-4-
E--5-5-5-5-5-5-5---------------------2-2-2-2-2-2-2-2-2-2-
     m   m     m   m
E--------------------------------------
B--------------------------------------
G--4-4-4-4-4-5-5-5-5-5-5-5-5-5-5-5-5-5-
D--4-4-4-4-4-5-5-5-5-5-5-5-5-5-5-5-5-5-
A--2-2-2-2-2-3-3-3-3-3-3-3-3-3-3-3-3-3-
E--------------------------------------
Solo
G.1 (G.2 plays his verse part)
E--2-0~-0-0-0-2-0----0-2-0~-0-0-0-2-0-2--0-0-2-0-2p0-2-0---0---0----
B-----------------5/-------------------------------------2---1---0--
G-------------------------------------------------------------------
D-------------------------------------------------------------------
A-------------------------------------------------------------------
E-------------------------------------------------------------------
Outro
E----------------
B----------------
G-------2-2-2-2--3x
D--2~~~-2-2-2-2--
A--2~~~-0-0-0-0--
E--0~~~----------

E-----------------------------
B-----------------------------
G---------2-4-----------------
D--2~~~-2-2-4-2--2~~~~~~~~-2--
A--2~~~-2-0-2-2--2~~~~~~~~-2--
E--0~~~-0-----0--0~~~~~~~~-0--
exibições 6.924
Acordes para:
    Composição: Adam Schlesinger

    0 comentários

    mostrar mais comentários

    Conseguiu tocar?

    0 tocaram 0 ainda não

    Grave um vídeo tocando That thing you do e mande pra gente!

    00:00 / 00:00
    outros vídeos desta música
    repetir qualidade Automático
    Outros vídeos desta música
    00:00 / 00:00
    Automático
    OK