Cifra Club

Understatement

New Found Glory

Cifra: Principal (violão e guitarra)
Tom: G
e:------------------------------------------------------------------] 
B:------------------------------------------------------------------] 
G:------------------------------------------------------------------] 
D:-2x2--xxxx--2x2--xxxx--2x2--xxxx--2x2--xxxx-----------------------] 
A:-2x2--xxxx--2x2--xxxx--2x2--xxxx--2x2--xxxx-----------------------] 
E:-0x0--xxxx--0x0--xxxx--0x0--xxxx--0x0--xxxx-----------------------] 

E:------------------------------------------------------------------] 
B:------------------------------------------------------------------] 
G:------------------------------------------------------------------] 
D:-2xxxxxxxxxxxxxx--------------------------------------------------] 
A:-2xxxxxxxxxxxxxx--------------------------------------------------] 
e:-0xxxxxxxxxxxxxx--------------------------------------------------] 

verse 
distorted 
E:------------------------------------------------------------------] 
B:------------------------------------------------------------------] 
G:------------------------------------------------------------------] 
D:-2xxxxxxxxxxxxxxx--4-4--44--7-7--77-------------------------------] 
A:-2xxxxxxxxxxxxxxx--4-4--44--7-7--77-------------------------------] 
e:-0xxxxxxxxxxxxxxx--2-2--22--5-5--55-------------------------------] 

E:------------------------------------------------------------------] 
B:------------------------------------------------------------------] 
G:------------------------------------------------------------------] 
D:-2xxxxxxxxxxxxxxx--4-4--44--7-7--77-------------------------------] 
A:-2xxxxxxxxxxxxxxx--4-4--44--7-7--77-------------------------------] 
e:-0xxxxxxxxxxxxxxx--2-2--22--5-5--55-------------------------------] 

E:------------------------------------------------------------------] 
B:------------------------------------------------------------------] 
G:------------------------------------------------------------------] 
D:-2xxxxxxxxxxxxxxx--4-4--44--7-7--77-------------------------------] 
A:-2xxxxxxxxxxxxxxx--4-4--44--7-7--77-------------------------------] 
e:-0xxxxxxxxxxxxxxx--2-2--22--5-5--55-------------------------------] 

E:------------------------------------------------------------------] 
B:------------------------------------------------------------------] 
G:------------------------------------------------------------------] 
D:-2xxxxxxxxxxxxxxx--4-4--44--7-7--77-------------------------------] 
A:-2xxxxxxxxxxxxxxx--4-4--44--7-7--77-------------------------------] 
e:-0xxxxxxxxxxxxxxx--2-2--22--5-5--55-------------------------------] 

post chorus distorted 
E:------------------------------------------------------------------] 
B:------------------------------------------------------------------] 
G:------------------------------------------------------------------] 
D:-11-11--1111--9-9--99--7-7--77--9-9--99---------------------------] 
A:-11-11--1111--9-9--99--7-7--77--9-9--99---------------------------] 
e:--9--9---9-9--7-7--77--5-5--55--7-7--77---------------------------] 

E:------------------------------------------------------------------] 
B:------------------------------------------------------------------] 
G:------------------------------------------------------------------] 
D:-11-11--1111--9-9--99--7-7--77--9xxxx-9---------------------------] 
A:-11-11--1111--9-9--99--7-7--77--9xxxx-9---------------------------] 
e:--9--9---9-9--7-7--77--5-5--55--7xxxx-7---------------------------] 

E:------------------------------------------------------------------] 
B:------------------------------------------------------------------] 
G:------------------------------------------------------------------] 
D:-11-11--1111--9-9--99--7-7--77--9-9--99---------------------------] 
A:-11-11--1111--9-9--99--7-7--77--9-9--99---------------------------] 
e:--9--9---9-9--7-7--77--5-5--55--7-7--77---------------------------] 

E:------------------------------------------------------------------] 
B:------------------------------------------------------------------] 
G:------------------------------------------------------------------] 
D:-11-11--1111--9-9--99--7-7----------------------------------------] 
A:-11-11--1111--9-9--99--7-7----------------------------------------] 
e:--9--9---9-9--7-7--77--5-5----------------------------------------] 

chorus distorted 
E:------------------------------------------------------------------] 
B:------------------------------------------------------------------] 
G:-------------2--2-04444--------------2--2-04444-------------------] 
D:-2--2-04444--2--2-04444--2--2-04444--2--2-04444-------------------] 
A:-2--2-04444--0--0-02222--2--2-04444--0--0-02222-------------------] 
e:-0--0-02222--------------0--0-02222-------------------------------] 

E:------------------------------------------------------------------] 
B:------------------------------------------------------------------] 
G:-------------2--2-04444-------------------------------------------] 
D:-2--2-04444--2--2-04444-------------------------------------------] 
A:-2--2-04444--0--0-02222-------------------------------------------] 
e:-0--0-02222-------------------------------------------------------] 

E:------------------------------------------------------------------] 
B:------------------------------------------------------------------] 
G:------------------------------------------------------------------] 
D:-11~-------7-7x---9--9--------------------------------------------] 
A:-11~-------7-7x---9--9--------------------------------------------] 
e:--9~-------5_5x---7_-7_-------------------------------------------] 

post verse 
E:------------------------------------------------------------------] 
B:------------------------------------------------------------------] 
G:------------------------------------------------------------------] 
D:-2xxxxxxxxxxxxxx--------------------------------------------------] 
A:-2xxxxxxxxxxxxxx--------------------------------------------------] 
e:-0xxxxxxxxxxxxxx--------------------------------------------------] 

verse 2 
distorted 
E:------------------------------------------------------------------] 
B:------------------------------------------------------------------] 
G:------------------------------------------------------------------] 
D:-2xxxxxxxxxxxxxxx--4-4--44--7-7--77-------------------------------] 
A:-2xxxxxxxxxxxxxxx--4-4--44--7-7--77-------------------------------] 
e:-0xxxxxxxxxxxxxxx--2-2--22--5-5--55-------------------------------] 

E:------------------------------------------------------------------] 
B:------------------------------------------------------------------] 
G:------------------------------------------------------------------] 
D:-2xxxxxxxxxxxxxxx--4-4--44--7-7--77-------------------------------] 
A:-2xxxxxxxxxxxxxxx--4-4--44--7-7--77-------------------------------] 
e:-0xxxxxxxxxxxxxxx--2-2--22--5-5--55-------------------------------] 

post chorus distorted 
E:------------------------------------------------------------------] 
B:------------------------------------------------------------------] 
G:------------------------------------------------------------------] 
D:-11-11--1111--9-9--99--7-7--77--9-9--99---------------------------] 
A:-11-11--1111--9-9--99--7-7--77--9-9--99---------------------------] 
e:--9--9---9-9--7-7--77--5-5--55--7-7--77---------------------------] 

E:------------------------------------------------------------------] 
B:------------------------------------------------------------------] 
G:------------------------------------------------------------------] 
D:-11-11--1111--9-9--99--7-7--77--9xxxx-9---------------------------] 
A:-11-11--1111--9-9--99--7-7--77--9xxxx-9---------------------------] 
e:--9--9---9-9--7-7--77--5-5--55--7xxxx-7---------------------------] 

E:------------------------------------------------------------------] 
B:------------------------------------------------------------------] 
G:------------------------------------------------------------------] 
D:-11-11--1111--9-9--99--7-7--77--9-9--99---------------------------] 
A:-11-11--1111--9-9--99--7-7--77--9-9--99---------------------------] 
e:--9--9---9-9--7-7--77--5-5--55--7-7--77---------------------------] 

E:------------------------------------------------------------------] 
B:------------------------------------------------------------------] 
G:------------------------------------------------------------------] 
D:-11-11--1111--9-9--99--7-7----------------------------------------] 
A:-11-11--1111--9-9--99--7-7----------------------------------------] 
e:--9--9---9-9--7-7--77--5-5----------------------------------------] 

chorus distorted 
E:------------------------------------------------------------------] 
B:------------------------------------------------------------------] 
G:-------------2--2-04444--------------2--2-04444-------------------] 
D:-2--2-04444--2--2-04444--2--2-04444--2--2-04444-------------------] 
A:-2--2-04444--0--0-02222--2--2-04444--0--0-02222-------------------] 
e:-0--0-02222--------------0--0-02222-------------------------------] 

E:------------------------------------------------------------------] 
B:------------------------------------------------------------------] 
G:-------------2--2-04444-------------------------------------------] 
D:-2--2-04444--2--2-04444-------------------------------------------] 
A:-2--2-04444--0--0-02222-------------------------------------------] 
e:-0--0-02222-------------------------------------------------------] 

E:------------------------------------------------------------------] 
B:------------------------------------------------------------------] 
G:------------------------------------------------------------------] 
D:-11~-------7-7x---9--9--------------------------------------------] 
A:-11~-------7-7x---9--9--------------------------------------------] 
e:--9~-------5_5x---7_-7_-------------------------------------------] 
bridge 
distorted 
E:------------------------------------------------------------------] 
B:------------------------------------------------------------------] 
G:------------------------------------------------------------------] 
D:-2222--2--2--2--4444--4--4--4--7777--7--7--7--7777-7-9--9---------] 
A:-2222--2--2--2--4444--4--4--4--7777--7--7--7--7777-7-9--9---------] 
e:-0000--0--0--0--2222--2--2--2--5555--5--5--5--5555-5-7_-7_--------] 
xxxx x xxxx x xxxx x xxxx x 
E:------------------------------------------------------------------] 
B:------------------------------------------------------------------] 
G:------------------------------------------------------------------] 
D:-2222--2--2--2--4444--4--4--4--7777--7--7--7--7777-7-9--9---------] 
A:-2222--2--2--2--4444--4--4--4--7777--7--7--7--7777-7-9--9---------] 
e:-0000--0--0--0--2222--2--2--2--5555--5--5--5--5555-5-7--7---------] 
xxxx x xxxx x xxxx x xxxx x 
E:------------------------------------------------------------------] 
B:------------------------------------------------------------------] 
G:------------------------------------------------------------------] 
D:-2222--2--2--2--4444--4--4--4--7777--7--7--7--7777-7-9--9---------] 
A:-2222--2--2--2--4444--4--4--4--7777--7--7--7--7777-7-9--9---------] 
e:-0000--0--0--0--2222--2--2--2--5555--5--5--5--5555-5-7_-7_--------] 
xxxx x xxxx x xxxx x xxxx x 

slow part 
clean 

E:------------------------------------------------------------------] 
B:------------------------------------------------------------------] 
G:-------------2--2-04444--------------2--2-04444-------------------] 
D:-2--2-04444--2--2-04444--2--2-04444--2--2-04444-------------------] 
A:-2--2-04444--0--0-02222--2--2-04444--0--0-02222-------------------] 
e:-0--0-02222--------------0--0-02222-------------------------------] 

E:------------------------------------------------------------------] 
B:------------------------------------------------------------------] 
G:-------------2--2-04444-------------------------------------------] 
D:-2--2-04444--2--2-04444-------------------------------------------] 
A:-2--2-04444--0--0-02222-------------------------------------------] 
e:-0--0-02222-------------------------------------------------------] 


distorted 
E:------------------------------------------------------------------] 
B:------------------------------------------------------------------] 
G:------------------------------------------------------------------] 
D:-11~-------7-7x---9--9--------------------------------------------] 
A:-11~-------7-7x---9--9--------------------------------------------] 
e:--9~-------5_5x---7_-7_-------------------------------------------] 

bridge 

distorted 
E:------------------------------------------------------------------] 
B:------------------------------------------------------------------] 
G:-------------2--2-04444--------------2--2-04444-------------------] 
D:-2--2-04444--2--2-04444--2--2-04444--2--2-04444-------------------] 
A:-2--2-04444--0--0-02222--2--2-04444--0--0-02222-------------------] 
e:-0--0-02222--------------0--0-02222-------------------------------] 

E:------------------------------------------------------------------] 
B:------------------------------------------------------------------] 
G:-------------2--2-04444-------------------------------------------] 
D:-2--2-04444--2--2-04444-------------------------------------------] 
A:-2--2-04444--0--0-02222-------------------------------------------] 
e:-0--0-02222-------------------------------------------------------] 

chorus distorted 
E:------------------------------------------------------------------] 
B:------------------------------------------------------------------] 
G:-------------2--2-04444--------------2--2-04444-------------------] 
D:-2--2-04444--2--2-04444--2--2-04444--2--2-04444-------------------] 
A:-2--2-04444--0--0-02222--2--2-04444--0--0-02222-------------------] 
e:-0--0-02222--------------0--0-02222-------------------------------] 

E:------------------------------------------------------------------] 
B:------------------------------------------------------------------] 
G:-------------2--2-04444-------------------------------------------] 
D:-2--2-04444--2--2-04444-------------------------------------------] 
A:-2--2-04444--0--0-02222-------------------------------------------] 
e:-0--0-02222-------------------------------------------------------] 

E:------------------------------------------------------------------] 
B:------------------------------------------------------------------] 
G:------------------------------------------------------------------] 
D:-11~-------7-7x---9--9--------------------------------------------] 
A:-11~-------7-7x---9--9--------------------------------------------] 
e:--9~-------5_5x---7_-7_-------------------------------------------] 

outro 
E:---------------] 
B:---------------] 
G:---------------] 
D:-2222--2--2~---] 
A:-2222--2--2~---] 
e:-0000--0--0~---] 
exibições 7.074
Acordes para:
    Composição: New Found Glory Colaboração e revisão:
    • Marcelo Pienteado

    0 comentários

    mostrar mais comentários

    Conseguiu tocar?

    1 tocaram 0 ainda não

    Grave um vídeo tocando Understatement e mande pra gente!

    00:00 / 00:00
    outros vídeos desta música
    repetir qualidade Automático
    Outros vídeos desta música
    00:00 / 00:00
    Automático
    OK