Cifra Club

Primitive Notion

New Order

Cifra: Principal (violão e guitarra)
Selo Cifra Club: esta cifra foi revisada para atender aos critérios oficiais da nossa Equipe de Qualidade.
tom: Gm
E|-------------------------------------------------------------------------------------------------|
B|-------------------------------------------------------------------------------------------------|
G|-------------------------------------------------------------------------------------------------|
D|--3--3--3--3--7--7--7--5----5--5--5----5--5--5--3--3--3--3--5--5--5--0----0--0--0----0--0--0-----|
A|--5--5--5--5--5--5--5--5----5--5--7----7--7--7--5--5--5--5--5--5--5--5----5--5--8----8--8--8-----|
E|--0--0--0--0--0--0--0--0----0--0--0----0--0--0--0--0--0--0--0--0--0--0----0--0--0----0--0--0-----|

E|-------------------------------------------------------------------------------------------------|
B|-------------------------------------------------------------------------------------------------|
G|-------------------------------------------------------------------------------------------------|
D|--3--3--3--3--7--7--7--5----5--5--5----5--5--5--3--3--3--3--5--5--5--0----0--0--0----0--0--0-----|
A|--5--5--5--5--5--5--5--5----5--5--7----7--7--7--5--5--5--5--5--5--5--5----5--5--8----8--8--8-----|
E|--0--0--0--0--0--0--0--0----0--0--0----0--0--0--0--0--0--0--0--0--0--0----0--0--0----0--0--0-----|


E|--------0--------0-----0-------0--1---1---0-----0-----0-----0--0-----0----0-----0--0-----|
B|--------3--------3-----3-------3--3---3---3-----1-----1-----1--1-----3----3-----3--3-----|
G|--------2--------2-----2-------2--2---2---2-----2-----2-----2--2-----4----4-----4--4-----|
D|--0-----0-----0--0-------------0--0---0---0-----3-----3-----3--3-----5----5-----5--5-----|
A|--0-----------0--------------------------------------------------------------------------|
E|--0-----------0--------------------------------------------------------------------------|

E|--------0--------0-----0-------0--1---1---0-----0-----0-----0--0-----0----0-----0--0-----|
B|--------3--------3-----3-------3--3---3---3-----1-----1-----1--1-----3----3-----3--3-----|
G|--------2--------2-----2-------2--2---2---2-----2-----2-----2--2-----4----4-----4--4-----|
D|--0-----0-----0--0-------------0--0---0---0-----3-----3-----3--3-----5----5-----5--5-----|
A|--0-----------0--------------------------------------------------------------------------|
E|--0-----------0--------------------------------------------------------------------------|

Verse 1

E|-------------------------------------------------------------------------------------------------|
B|-------------------------------------------------------------------------------------------------|
G|-------------------------------------------------------------------------------------------------|
D|--3--3--3--3--7--7--7--5----5--5--5----5--5--5--3--3--3--3--5--5--5--0----0--0--0----0--0--0-----|
A|--5--5--5--5--5--5--5--5----5--5--7----7--7--7--5--5--5--5--5--5--5--5----5--5--8----8--8--8-----|
E|--0--0--0--0--0--0--0--0----0--0--0----0--0--0--0--0--0--0--0--0--0--0----0--0--0----0--0--0-----|

E|-------------------------------------------------------------------------------------------------|
B|-------------------------------------------------------------------------------------------------|
G|-------------------------------------------------------------------------------------------------|
D|--3--3--3--3--7--7--7--5----5--5--5----5--5--5--3--3--3--3--5--5--5--0----0--0--0----0--0--0-----|
A|--5--5--5--5--5--5--5--5----5--5--7----7--7--7--5--5--5--5--5--5--5--5----5--5--8----8--8--8-----|
E|--0--0--0--0--0--0--0--0----0--0--0----0--0--0--0--0--0--0--0--0--0--0----0--0--0----0--0--0-----|

[Bridge]

"If you hold on primitive notion..."

E|--5-----5---------5-----3-------3---------3------1-----1-----1--1-----0----0----0--0-----|
B|--3-----3---------3-----2-------2---------2------1-----1-----1--1-----3----3----3--3-----|
G|--2-----2---------2-----2-------2---------2------2-----2-----2--2-----4----4----4--4-----|
D|--0-----0------0--0-----0-------0------0--0------3-----3-----3--3-----5----5----5--5-----|
A|--0--------------------------------------------------------------------------------------|
E|--0--------------------------------------------------------------------------------------|

X2


[Chorus]

"I've done it before and I'll do it again..."

E|--1--1--1--1--1--1--1--1--1--1--1--1--1--1--1--1--------------------------------------------------|
B|--1--1--1--1--1--1--1--1--1--1--1--1--1--1--1--1--3--3--3--3--3--3--3--3--2--2--2--2--2--2--2--2--|
G|--2--2--2--2--2--2--2--2--2--2--2--2--2--2--2--2--0--0--0--0--0--0--0--0--3--3--3--3--3--3--3--3--|
D|--3--3--3--3--3--3--3--3--3--3--3--3--3--3--3--3--5--5--5--5--5--5--5--5--0--0--0--0--0--0--0--0--|
A|--3--3--3--3--3--3--3--3--3--3--3--3--3--3--3--3--0--0--0--0--0--0--0--0--0--0--0--0--0--0--0--0--|
E|--------------------------------------------------------------------------------------------------|

E|--0--0--0--0--0--0--0--0--1--1--1--1--1--0--0--0--0--0--0--0--0--0--0--0--1--1--1--1--1--0--0--0--|
B|--1--1--1--1--1--1--1--1--1--1--1--1--1--1--1--1--2--2--2--2--2--2--2--2--2--2--2--2--2--2--2--2--|
G|--0--0--0--0--0--0--0--0--0--0--0--0--0--0--0--0--3--3--3--3--3--3--3--3--3--3--3--3--3--3--3--3--|
D|--2--2--2--2--2--2--2--2--2--2--2--2--2--2--2--2--0--0--0--0--0--0--0--0--0--0--0--0--0--0--0--0--|
A|--3--3--3--3--3--3--3--3--3--3--3--3--3--3--3--3--0--0--0--0--0--0--0--0--0--0--0--0--0--0--0--0--|
D|--------------------------------------------------------------------------------------------------|
Outros vídeos desta música
    23 exibições
      • ½ Tom
      • Am
      • Bbm
      • Bm
      • Cm
      • C#m
      • Dm
      • Ebm
      • Em
      • Fm
      • F#m
      • Gm
      • G#m
    • Adicionar à lista

    Afinação da cifra

    Afinador online

      0 comentários

      Ver todos os comentários

      Entre para o Cifra Club PRO

      Tenha acesso a benefícios exclusivos no App e no Site

      • Chega de anúncios

      • Badges exclusivas

      • Mais recursos no app do Afinador

      • Atendimento Prioritário

      • Aumente seu limite de lista

      • Ajude a produzir mais conteúdo

      Cifra Club Pro

      Aproveite o Cifra Club com benefícios exclusivos e sem anúncios
      Cifra Club Pro
      Aproveite o Cifra Club com benefícios exclusivos e sem anúncios
      Ops (: Contenido disponible sólo en portugués.
      OK