Notificações Amigos pendentes

      Nickelback

      How You Remind Me

      701.572 exibições
      Tom: A#
      Primeira Estrofe:
      
      C5                     F5
         Never made it as a wise man
      Bb5                         Eb5
          I couldn't cut it as a poor man stealing
      C5                          F5
         Tired of living like a blind man
      Bb5                              Eb5
          I'm sick of sight without a sense of feeling
      C5              Eb5/Ab        F5/Bb
      And this is how        you remind me
      
      
      E|-3-------3-------3----------------------------------|
      B|----1-------1-------1-------------------------------|
      G|-----------------------3----------------------------|
      D|----------------------------------------------------|
      A|----------------------------------------------------|
      D|----------------------------------------------------|
      
      
      
      Segunda Estrofe:
      
      C5             F5        Bb5
         This is how    you remind me
              Eb5
      Of what I really am
      C5             F5        Bb5
         This is how    you remind me
              Eb5
      Of what I really am
      
      
         Bb5
      E|-1--------------------------------------------------|
      B|----------------------------------------------------|
      G|----3-----------------------------------------------|
      D|----------------------------------------------------|
      A|----------------------------------------------------|
      D|----------------------------------------------------|
      
      
      
      Primeiro Pré-Refrão:
      
      C5                   Eb5
         It's not like you     to say sorry
      Bb5                     F5
          I was waiting on a different story
      C5               Eb5
         This time I'm     mistaken
      Bb5                    F5
          For handing you a heart worth breaking
      
      C5                   Eb5
      And I've been wrong,     I've been down
      Bb5                       F5
          Been to the bottom of every bottle
      C5             Eb5
         These five words in my head
      Bb5                 F5
          Scream "are we having fun yet?"
      
      
      Primeiro Refrão:
      
      C5     F5     Bb5     Eb5
         yet    yet     yet     no no
      C5     F5     Bb5     Eb5
         yet    yet     yet     no no
      
      
         C5(9)      Bb5(9)
      E|-3--3-------1--1--------------------------|
      B|-3----------1----1------------------------|
      G|-5-----5----3------3----------------------|
      D|-5----------3-----------------------------|
      A|-3----------1-----------------------------|
      D|------------------------------------------|
      
      
      (Riff 1)
      
         C5
      E|------------------------------------------|
      B|------------------------------------------|
      G|-5----------------------------------------|
      D|-5----------------------------------------|
      A|-3--/5--/6--------------------------------|
      D|------------------------------------------|
      
      
      
      Terceira Estrofe:
      
      It's not like you didn't know that
      
      I said I love you and I swear I still do
      C5(9)
            And it must have been so bad
      Bb5(9)
             Cause living with me must
      
      Have damn near killed you
      
      And this is how, you remind me
      
      Of what I really am
                          Bb5
      This is how, you remind me
              Eb5
      Of what I really am
      
      
         C5(9)      Bb5(9)
      E|-3--3-------1-----------------------------|
      B|-3----------1-----------------------------|
      G|-5-----5----3-----------------------------|
      D|-5----------3-----------------------------|
      A|-3----------1-----------------------------|
      D|------------------------------------------|
      
      
      E|-3-------3-------1------------------------|
      B|----1-------1-------1---------------------|
      G|------------------------------------------|
      D|------------------------------------------|
      A|------------------------------------------|
      D|------------------------------------------|
      
      
      E|-3-------3-------1------------------------|
      B|----1-------1-------1---------------------|
      G|------------------------------------------|
      D|------------------------------------------|
      A|------------------------------------------|
      D|------------------------------------------|
      
      
      
      Segundo Pré-Refrão:
      
      C5                   Eb5
         It's not like you     to say sorry
      Bb5                     F5
          I was waiting on a different story
      C5               Eb5
         This time I'm     mistaken
      Bb5                    F5
          For handing you a heart worth breaking
      
      C5                   Eb5
      And I've been wrong,     I've been down
      Bb5                       F5
          Been to the bottom of every bottle
      C5             Eb5
         These five words in my head
      Bb5                 F5
          Scream "are we having fun yet?"
      
      
      Segundo Refrão:
      
      C5     F5     Bb5     Eb5
         yet    yet     yet     no no
      C5     F5     Bb5     Eb5
         yet    yet     yet     no no
      C5     F5     Bb5     Eb5
         yet    yet     yet     no no
      C5     F5     Bb5     Eb5       C5
         yet    yet     yet     no no
      
      
         C5(9)      Bb5(9)
      E|-3--3-------1--1--------------------------|
      B|-3----------1----1------------------------|
      G|-5-----5----3------3----------------------|  (4x)
      D|-5----------3-----------------------------|
      A|-3----------1-----------------------------|
      D|------------------------------------------|
      
      
      
      ( C5  F5  Bb5  Eb5 )  (2x)
      
      
      E|------------------------------------------|
      B|-3----1-----------------------------------|
      G|-5----3-----------------------------------|
      D|-5----3-----------------------------------|
      A|-3----1-----------------------------------|
      D|------------------------------------------|
      
      
      
      Quarta Estrofe:
      
      C5                     F5
         Never made it as a wise man
      Bb5                         Eb5
          I couldn't cut it as a poor man stealing
      C5              Eb5/Ab        F5/Bb
      And this is how        you remind me
      C5             Eb5/Ab        F5/Bb
         This is how        you remind me
      
      C5             F5        Bb5
         This is how    you remind me
              Eb5
      Of what I really am
      C5             F5        Bb5
         This is how    you remind me
              Eb5
      Of what I really am
      
      
      E|-3-------3-------1------1-----------------|
      B|----1-------1-------1------1--------------|
      G|------------------------------------------|
      D|------------------------------------------|
      A|------------------------------------------|
      D|------------------------------------------|
      
      
      E|-3-------3-------1------------------------|
      B|----1-------1-------1---------------------|
      G|------------------------------------------|
      D|------------------------------------------|
      A|------------------------------------------|
      D|------------------------------------------|
      
      
      
      Terceiro Pré-Refrão:
      
      C5                   Eb5
         It's not like you     to say sorry
      Bb5                     F5
          I was waiting on a different story
      C5               Eb5
         This time I'm     mistaken
      Bb5
          For handing you a heart worth breaking
      
      C5                   Eb5
      And I've been wrong,     I've been down
      Bb5                       F5
          Been to the bottom of every bottle
      C5             Eb5
         These five words in my head
      Bb5                 F5
          Scream "are we having fun yet?"
      
      
      Refrão Final:
      
      C5     Eb5     Bb5
         Yet     yet
              F5
      Are we having fun yet
      
      C5     Eb5     Bb5
         Yet     yet
              F5
      Are we having fun yet
      
      C5     Eb5     Bb5
         Yet     yet
              F5
      Are we having fun yet
      
      
         C5(9)      Bb5(9)
      E|-3--3-------1--1--------------------------|
      B|-3----------1----1------------------------|
      G|-5-----5----3------3----------------------|  (3x)
      D|-5----------3-----------------------------|
      A|-3----------1-----------------------------|
      D|------------------------------------------|
      
      
      C5     Eb5     Bb5
         Yet     yet
      
      
         C5(9)
      E|-3--3------------6-------6-----6-------6--|
      B|-3--------6----6-------6-----6-------6----|
      G|-5-----5--5--------5-------------5--------|
      D|-5----------------------------------------|
      A|-3----------------------------------------|
      D|----------6-------------------------------|
      
        Composição: Chad Kroeger / NickelbackColaboração e revisão:
        • v.inny
        • Matheus
        • gabiramalho
        • caiolga
        • +5

        Comentários 23

        140 .
        • Caio Caio: Em 21/08/2014 11:18

          Mt boa essa musica.. Peguei so de ouvido dropando a corda Misona, e quando fui ver a cifra tava igual.. kk

        • JOSÉ ROBERTO JOSÉ ROBERTO: Em 04/08/2014 23:19

          Pessoal, correção no Riff 1:

          A|-3--/6--/8--------------------------------|

          Valeu!

        • hendru hendru: Em 01/11/2013 23:13

          Visitem meu blog, e para musicos amadores: themusicalitybr blogspot com br

        • Jael Jael: Em 01/11/2013 11:38

          Só tem erro na letra da música, mas de resto tá tudo certo.
          Na parte que é repetido a palavra "yet" na verdade é "yeah".

          • lulabdbbr lulabdbbr: Em 02/11/2013 16:28

            kkkkk só na sua cabeça q é ''yeah''

          • xjoaovictorx xjoaovictorx: Em 06/11/2013 22:36

            kkkkkkkkkk ta certo vei é yet mesmo..

        • euzivam euzivam: Em 30/10/2013 13:37

          Aeeeee. Até q enfim uma aula legal.

        • guix2332 guix2332: Em 09/06/2013 17:53

          Fica melhor com Am, F, C, G

        • heroe147 heroe147: Em 26/01/2013 20:51

          muito facil...

        • caiolga caiolga: Em 28/08/2012 14:16

          Ta corrigida ja

        140 cancelar

        conseguiu tocar?

        • •••
        0:00 / 0:00
        4 versões de baixo exibições contribuição e correção
        1 versão de bateria exibições contribuição e correção
        play/pausefechar subir/descer velocidade
        6ª corda E5ª corda A4ª corda D3ª corda G2ª corda B1ª corda E
          acordes
          transcrição verificada v.inny instrutor de guitarra
          publicidade
          fechar
          ok