Cifra Club

Aprenda

If Everyone Cared

Nickelback

Cifra: Principal (violão e guitarra)
tom: A
[Intro]

   F#m              A5               E5               F#5
E|----------------|----------------|----------------|--------------| E|-------------------|-------------------|------------------|-----------------------|
B|-------------------|-------------------|------------------|-----------------------|
G|-------------------|-------------------|------------------| ,----------------------|
D|-----4---6---7---|-----7-----9---7-|-----2----4---4-|-----4-----6----4-4-|
A|---4---4----4----|---7---7----7----|---2---2----2---|---4---4----4--------|
E|-2----------------|-5-----------------|-0---------------| 2---------------------|

   F#m              A5               E5               F#5
E|-------------------|-------------------|------------------|-----------------------|
B|-------------------|-------------------|------------------|-----------------------|
G|-------------------|-------------------|------------------| ,----------------------|
D|-----4---6---7---|-----7-----9---7-|-----2----4---4-|-----4-----6----4-4-|
A|---4---4----4----|---7---7----7----|---2---2----2---|---4---4----4--------|
E|-2----------------|-5-----------------|-0---------------| 2---------------------|

( F#m  A5  E5  F#5 )

[Primeira Parte]

                    F#m                  A
From underneath the trees, We watch the sky
           E             F#
Confusing stars for sattelites
        F#m                   A
I never dreamed that you'd be mine
            E                  F#
But here we are, we're here tonight

[Pré-Refrão]

      A        E         F#
Singing, amen, I... I'm alive (I'm alive)
      A        E         F#
Singing, amen, I... I'm alive

[Refrão]
              D               A
If everyone cared and nobody cried
              E             F#
If everyone loved and nobody lied
              D                         A
If everyone shared and swallowed their pride
                   E
Then we'd see the day when nobody died

[Re-Intro]

            F#m
I'm singin amen
      A         E         F#
Amen, I...Imen, I... I'm alive
      F#m        A          E         F#
Amem, I... Imen, I... amen, I... I'm alive

[Segunda Parte]

           F#m          A
And In the air the fireflyes
          E            F#
Our only light in paradise
                F#m              A
We'll show the world they were wrong
                E           F#
And teach them all to sing along

[Pré-Refrão]

      A        E         F#
Singing, amen, I... I'm alive (I'm alive)
      A        E         F#
Singing, amen, I... I'm alive

[Refrão]

              D               A
If everyone cared and nobody cried
              E             F#
If everyone loved and nobody lied
              D                         A
If everyone shared and swallowed their pride
                   E               F#
We'd see the day when nobody died

[Solo]

E|-------------------------|----------------------|
B|----------2-----------2--|-----------5-5/7-7/10-|
G|---2--4--------2--4------|-4--2--4/6------------|
D|-4-----------4-----------|----------------------|
A|-------------------------|----------------------|
E|-------------------------|----------------------|

E|--------------------|--------------------|
B|--------------14----|-----------14-------|
G|-------14-16--------|----14-16------16~--|
D|-14/16--------------|-16-----------------|
A|--------------------|--------------------|
E|--------------------|--------------------|

[Terceira Parte]

   F#m               A
E|-----------------|---------------|
B|---------10--9~--|----------14~--|
G|------11---------|-------14------|
D|---11------------|----14---------|
A|-9---------------|-12------------|
E|-----------------|---------------|
   E             F#
E|---------7~--|----------9~--|
B|-------------|--------------|
G|------9------|-------11-----|
D|---9---------|----11--------|
A|-7-----------|-9------------|
E|-------------|--------------|
          F#m                A
And as we lie beaneath the stars
       E                F#
We realize how small we are
               F#m              A
If they could love like you and me
         E                   F#
Imagine what the world could be

[Refrão]

              D               A
If everyone cared and nobody cried
              E             F#
If everyone loved and nobody lied
              D                         A
If everyone shared and swallowed their pride
                   E               F#
We'd see the day when nobody died

[Final]

              D                 A
We'd see the day, We'd see the day
              E  F#m
When nobody died
              D                 A
We'd see the day, We'd see the day
              E  F#m
When nobody died
              D          A       E
We'd see the day when nobody died...
Composição de Chad Kroeger / Nickelback
147.559 exibições
    • ½ Tom
    • A
    • Bb
    • B
    • C
    • Db
    • D
    • Eb
    • E
    • F
    • F#
    • G
    • Ab
  • Adicionar à lista

    0 comentários

    Ver todos os comentários

    Conseguiu tocar?

    34 Tocaram 1 Ainda não

    Grave um vídeo tocando If Everyone Cared e nos envie!

    00:00 / 00:00
    Outros vídeos desta música
    Repetir Qualidade Automático
    Outros vídeos desta música
    00:00 / 00:00
    Automático

    Cifra Club Pro

    Aproveite o Cifra Club com benefícios exclusivos e sem anúncios
    Cifra Club Pro
    Aproveite o Cifra Club com benefícios exclusivos e sem anúncios
    OK