Cifra Club

Aprenda

Savin' Me

Nickelback

Cifra: Principal (violão e guitarra)
Tom: F
Intro:Bb  F  Gm  Dm


E|---------------------------------------------------|
B|---------------------------------------------------|
G|---------------------------------------------------|
D|------6-4-------6-4-6--------6-4----------2-4-2----|
A|-0-------------------------------4-4-4-------------|
E|----------0-0-0---------2--------------------------|

E|----------------------------------------------------|
B|----------------------------------------------------|
G|----------------------------------------------------|
D|----6-4---------6-4-6-------6-4----------2-4-2------|
A|-0-------------------------------4-4-4--------------|
E|----------0-0-0---------2---------------------------|

Bb                   F
Prison gates won't open up for me
Gm           Dm
On these hands and knees I'm crawlin'
Bb       F        Gm
Oh, I reach for you
     Bb          F
Well I'm terrified of these four walls
   Gm           Dm
These iron bars can't hold my soul in
Bb        F    Gm
All I need is you    (Come please I'm callin')
  Bb       F    Gm
And oh I scream for you   (Hurry I'm fallin')

 Dm    F      C         Gm
Show me what its like (to be the last one standing)
  Gm        F     C             Gm
And teach me wrong from right (and I'll show you what i can be)
Bb          F        Gm                Dm      F
Say it for me, say it to me, and I'll leave this life behind me
Bb            F        Gm
Say it if it's worth saving me

Bb            F
Heaven's gates wont't open up for me
Gm            Dm
With these broken wings I'm fallin'
  Bb      F       Gm
And all I see is you
  Bb            F
These city walls ain't got no love for me
Gm                Dm
I'm on the ledge of the eighteenth story

  Bb       F    Gm
And oh I scream for you  (Come please I'm callin')
 Bb      F     Gm
And oh I need for you   (Hurry I'm fallin')


Dm      F      C         Gm
Show me what its like (to be the last one standing)
  Dm        F     C             Gm
And teach me wrong from right (and I'll show you what i can be)
Bb          F       Gm                 Dm  x x F x x
Say it for me, say it to me, and I'll leave this life behind me
Bb             F            Gm

Say it if it's worth saving me
E|-----------------------------------|
B|-----------------------------------|
G|--1-0--------1-0--------1-0--------|
D|------3-1-3------3-1-3------3-1----|
A|-----------------------------------|
E|-----------------------------------|

E|----------------------------------|------------------------|
B|----------------------------------|------------------------|
G|----------------------------------|--1-0-------------------|
D|--3---------1/5----3--/3--1-------|-3-1-3--------1/5----3--|
A|-----3-3-3------------------------|-----------3--3---------|
E|----------------------------------|------------------------|

E|-------------------------------|--4-3-1---1--4-3-1---1--4-3-1------------|
B|-------------------------------|--------4--------------4------------4----|
G|------0-0-0-0-1-1-1-1-3-3-3-3--|-----------------------------------------|
D|3-3-3--------------------------|-----------------------------------------|
A|-------------------------------|-----------------------------------------|
E|-------------------------------|-----------------------------------------|

E|--1------------/3--1--/1-------|--1-3-3-3-3-4-4-4-6--4--6--/13------------|
B|-----1-1-1--4-------------4----|------------------------------------------|
G|-------------------------------|------------------------------------------|
D|-------------------------------|------------------------------------------|
A|-------------------------------|------------------------------------------|
E|-------------------------------|------------------------------------------|

  Bb      F     Gm
And oh I need for you   (Come please I'm callin')
  Bb       F   Gm
And oh I scream for you   (Hurry I'm fallin')

Dm      F      C         Gm
Show me what its like (to be the last one standing)
  Dm        F     C             Gm
And teach me wrong from right (and I'll show you what i can be)
Bb         F        Gm                 Dm     F
Say it for me, say it to me, and I'll leave this life behind me
Bb            F        Gm
Say it if it's worth saving me  (Hurry I'm fallin')
Bb          F        Gm                Dm      F
Say it for me, say it to me, and I'll leave this life behind me
Bb            F        Gm
Say it if it's worth saving me
Composição de Chad Kroeger / Nickelback
Colaboração e revisão:
  • joao alberto
  • Eduardo Filipe
  • Carlos Santos
19.774 exibições
    • ½ Tom
    • A
    • Bb
    • B
    • C
    • Db
    • D
    • Eb
    • E
    • F
    • F#
    • G
    • Ab
  • Adicionar à lista

    0 comentários

    Mostrar mais comentários
    00:00 / 00:00
    outros vídeos desta música
    repetir qualidade Automático
    Outros vídeos desta música
    00:00 / 00:00
    Automático
    OK