Cifra Club

Greta

Stevie Nicks

Cifra: Principal (violão e guitarra)
Selo Cifra Club: esta cifra foi revisada para atender aos critérios oficiais da nossa Equipe de Qualidade.
tom: Am
album version - STDE T ANGEL
E|---------------------------|
B|---------------------------|

[INTRO]
F Am G                        F            Am
       Rhinestone collections all the time
              G
I wonder what Greta would say


[VERSE 1]
        F            Am
Another lady another time
        G
Another   heartbroken state of mind
 F                     Am                   G
Alone in her chambers     she dreams of her home
        F             Am              G
Outside   she's got a movie star view
              F
Outcries well where will the kings go
Am                      G
Where will the kings go now?
              F
She's got her eyes wide open
          Am                 G
And she's ready to stare you down
            F              Am                     G
She says in words unspoken she's from out of town
     F               Am
Well some cry well I really don't dance down
G                                    C
Stormy weather it cuts like a knife


[CHORUS]
              F           G
She's got her bags packed
          F                           C
And she's off to the valley where the
              F
Sun meets the sea
G
You understand that
F                        G
She wants to live by the ocean and no one is pleased
           G
She gets a house in the mountains, the next day the next day she leaves the station


[INSTRUMENTAL]
   G
E|-------------------|-----------------------|------------------------|----------------------|
B|-------13p10-10----|-------13p10-10--------|------13p12p10----10----|-----10------13p12----|
G|-12b------------12-|-12b------------12-12b-|-12r-----------12----12-|-12--10------------12-|
D|-------------------|-----------------------|------------------------|-12------12--------12-|
A|-------------------|-----------------------|------------------------|----------------------|
E|-------------------|-----------------------|------------------------|----------------------|

   F                                                                                        E
E|---------------------|-----------------------|-----------------|------------------------|-12--|
B|--------12p10--10-10-|-10--10-10--12p10--10--|-10-10-12p10--10-|-10--10-10-12p10----10--|-----|
G|-12b-----------10-10-|-10--10-10---------10--|-10-10--------10-|-10--10-10-------12-----|-----|
D|---------------------|-----------------------|-----------------|------------------------|-----|
A|---------------------|-----------------------|-----------------|------------------------|-----|
E|---------------------|-----------------------|-----------------|------------------------|-----|


[BRIDGE]
E
  Do you really want to change love, do you really want to change love
              E
Or is it your right?


[VERSE 2]
F     Am                       G
Ooh, alone in her chambers she dreams of her home
      F                      Am         G
In a very real way she's the purest art form
               F                 Am             G
I bet she said just how many art lovers can one get to know?
                    F                     Am
She doesn't have an hour she doesn't have five minutes
      G           C
She's got to go!


[CHORUS]
              F           G
She's got her bags packed
          F                           C
And she's off to the valley where the
              F
Sun meets the sea
G
You understand that
F                        G
She wants to live by the ocean and no one is pleased
           G
She gets a house in the mountains, the next day the next day she leaves the station


[OUTRO]
F  Am  G               F            Am  G
         I wonder what Greta would say
                   F            Am  G
Well I wonder what Greta would say
              F              Am  G
I wonder what Greta would say
F               Am              G
Ooh she's got a movie star view
        F
Oh well where will the kings go
Am                      G
Where will the kings go now?
    F      Am  G
Say Greta
Outros vídeos desta música
    16 exibições
      • ½ Tom
      • Am
      • Bbm
      • Bm
      • Cm
      • C#m
      • Dm
      • Ebm
      • Em
      • Fm
      • F#m
      • Gm
      • G#m
    • Adicionar à lista

    Afinação da cifra

    Afinador online

      0 comentários

      Ver todos os comentários

      Entre para o Cifra Club PRO

      Tenha acesso a benefícios exclusivos no App e no Site

      • Chega de anúncios

      • Badges exclusivas

      • Mais recursos no app do Afinador

      • Atendimento Prioritário

      • Aumente seu limite de lista

      • Ajude a produzir mais conteúdo

      Cifra Club Pro

      Aproveite o Cifra Club com benefícios exclusivos e sem anúncios
      Cifra Club Pro
      Aproveite o Cifra Club com benefícios exclusivos e sem anúncios
      Ops (: Contenido disponible sólo en portugués.
      OK