Cifra Club

Hoy

Nicole

Cifra: Principal (violão e guitarra)
Selo Cifra Club: esta cifra foi revisada para atender aos critérios oficiais da nossa Equipe de Qualidade.
tom: D
INTRO: D, E, G, A

Riff 1
D|---4---7-5-4------------7-5-4----|
A|-5---5-------2------2-5-------0--| x2
E|------------------3--------------|


PARTE A:

D, E, G, A
D, E, G, A


PARTE B:

Bm, F#m, Em, A
Bm, F#m, Em, A
Bm, F#m, Em, G

Riff 2
D|---4---7-5-4------------5-4-0-2--|
A|-5---5-------2------2-5----------|
E|------------------3--------------|


PARTE C (CORO):

D, B, G, A
D, B, G, A


PARTE B:

Bm, F#m, Em, A
Bm, F#m, Em, A

G  O:
E|---------------------------------------15-14-12----------|
B|-------------15-14-12---------12-15-------------15-12----|
G|----11-14-------------14---12-------12-------------------|
D|-12-------12---------------------------------------------|

E|-------------14--------------------------------------------|
B|-------12---------9/12/10---10/12/10--10/12/10--10/12/10---|
G|----12----12-----------------------------------------------|
D|-14--------------------------------------------------------|

PARTE A:

D, E, G, A
D, E, G, A

PARTE B:

Bm, F#m, Em, A
Bm, F#m, Em, A

Riff 3
D|-----0-4-2-0-2-4-------2-------2-----2-----2----|
A|-2-4-------------5-4-5---5-4-5---4-5---4-5---5--|
E|------------------------------------------------|


PARTE C (CORO):

D, B, G, A
D, B, G, A


VARIACIÓN
|d|------2--------|
|a|-4--5---5------|
Outros vídeos desta música
    349 exibições
      • ½ Tom
      • A
      • Bb
      • B
      • C
      • Db
      • D
      • Eb
      • E
      • F
      • F#
      • G
      • Ab
    • Adicionar à lista

    Afinação da cifra

    Afinador online

      0 comentários

      Ver todos os comentários

      Entre para o Cifra Club PRO

      Tenha acesso a benefícios exclusivos no App e no Site

      • Chega de anúncios

      • Badges exclusivas

      • Mais recursos no app do Afinador

      • Atendimento Prioritário

      • Aumente seu limite de lista

      • Ajude a produzir mais conteúdo

      Cifra Club Pro

      Aproveite o Cifra Club com benefícios exclusivos e sem anúncios
      Cifra Club Pro
      Aproveite o Cifra Club com benefícios exclusivos e sem anúncios
      OK