Cifra Club

Eva Solo

Nightwish

Cifra: Principal (violão e guitarra)
tom: A
voilas j'ai reussi à trouver a l'oreille le solo du nouveau single de nighwish qui est 
le 24 mai qui se prénome EVA !!!

il y a surement des erreurs corriger les et faites les moi parvenir !! ;-)

c'est ma 1ere tabs donc les espace entre les notes ne correspondent pas forcement au temps !!!

voilas bonne gratte !! :-))))

e|-------------------------------------------------------------------------|
b|-14(15)--14(15)-14--12--10--12-------------------------------------------|
g|--------------------------------11---11--11--12--12--14--11--------------|
d|-------------------------------------------------------------14-12-12-14-|
a|-------------------------------------------------------------------------|
E|-------------------------------------------------------------------------|

e|-------------------------------------------------------------------------|
b|-------------------------------------------------------10--12------------|
g|--11-12-----12--11--9--9--11------------11----16-14-9-----------x-x--11--|
d|-----------------------------9~~~~------------------------------x-x------|
a--------------------------------------------------------------------------|
E|-------------------------------------------------------------------------|

e|--15--13-------------------------------------------------------------------|
b|----------10---------------------------------------------------------------|
g|---------------~~~-------------------11-14-17----15---12--~~~------|
d|-------------------------14--12---- 12-14----------------------------------|
a|---------------------------------------------------------------------------|
E|---------------------------------------------------------------------------|
Compositor não encontrado.
3.674 exibições
    • ½ Tom
    • A
    • Bb
    • B
    • C
    • Db
    • D
    • Eb
    • E
    • F
    • F#
    • G
    • Ab
  • Adicionar à lista

    0 comentários

    Ver todos os comentários

    Conseguiu tocar?

    1 Tocaram 0 Ainda não

    Grave um vídeo tocando Eva Solo e nos envie!

    00:00 / 00:00
    Outros vídeos desta música
    Repetir Qualidade Automático
    Outros vídeos desta música
    00:00 / 00:00
    Automático

    Cifra Club Pro

    Aproveite o Cifra Club com benefícios exclusivos e sem anúncios
    Cifra Club Pro
    Aproveite o Cifra Club com benefícios exclusivos e sem anúncios
    OK