Enviar cifraEntrar

Nemo

Nightwish

Cifra: Principal
exibições 148.479
Tom: D
Afinação: C  G  C  F  A  D

Intro: E5  G5  D5


Primeira Estrofe:

This is me for forever
One of the lost ones
The one without a name
Without an honest heart as compass
This is me for forever
One without a name
These lines the last endeavor
To find the missing lifeline


Primeiro Refrão:

E5                                 D5
   Oh how I wish for soothing rain
                             E5
All I wish is to dream again
                                 G5
My loving heart lost in the dark
                  D5
For hope I'd give    my everything


Segunda Estrofe:

My flower, withered between

The pages two and three
    E5          F#5
The once and forever bloom
 A5           D5
Gone with my sins
 G5
Walk the dark path sleep with angels

Call the past for help
 C5                 G5
Touch me with your love
       C5             F5
And reveal to me my true name


Segundo Refrão:

E5                                 D5
   Oh how I wish for soothing rain
                             E5
All I wish is to dream again
                                 G5
My loving heart lost in the dark
                  D5               E5
For hope I'd give    my everything

                                D5
Oh how I wish for soothing rain
                             E5
Oh how I wish to dream again

Once and for all and all for once

Nemo my name forever more


Interlúdio:


   E5
D|----------------------------------------------------|
A|----------------------------------------------------|
F|----------------------------------------------------|
C|----------------------------------------------------|
G|-14\----2-2-2-2-----14\----2-2-2-2------------------|
C|-14\----2-2-2-2-----14\----2-2-2-2------------------|


           E5
D|----------------------------------------------------|
A|----------------------------------------------------|
F|-0h2p0----------------------------------------------|
C|-0-----4-2-----2-2---2-2----------------------------|
G|---------2-----2-2---2-2----------------------------|
C|---------2-2-2-2-2-2-2-2-2-2-2-2--------------------|


           E5
D|----------------------------------------------------|
A|----------------------------------------------------|
F|-0h2p0----------------------------------------------|
C|-0-----4-2-----2-2---2-2----------------------------|
G|---------2-----2-2---2-2----------------------------|
C|---------2-2-2-2-2-2-2-2-2-2-2-2-2-2-2-2------------|


   E5
D|----------------------------------------------------|
A|----------------------------------------------------|
F|----------------------------------------------------|
C|-2-----2-2---2-2------------------------------------|
G|-2-----2-2---2-2------------------------------------|
C|-2-2-2-2-2-2-2-2-2-2-2-2----------------------------|


           E5                      G5 D5
D|----------------------------------------------------|
A|----------------------------------------------------|
F|-0h2p0----------------------------------------------|
C|-0-----4-2-----2-2---2-2---------5--0---------------|
G|---------2-----2-2---2-2---------5--0---------------|
C|---------2-2-2-2-2-2-2-2-2-2-2-2-5--0---------------|



Solo: E5  G5  D5  E5  G5  D5


D|--------15------------------------------------------|
A|-15b17------15b17~~---------------------------------|
F|----------------------------------------------------|
C|----------------------------------------------------|
G|----------------------------------------------------|
C|----------------------------------------------------|

                  T                 T

D|----------------------------------------------------|
A|----------------------------------------------------|
F|-\12--14--b16--b21r19------12h14--19p14~------------|
C|----------------------------------------------------|
G|----------------------------------------------------|
C|----------------------------------------------------|


D|-12-12\10--10/15--15\12-----------------------------|
A|-12-12\10--10/15--15\12-----------------------------|
F|----------------------------------------------------|
C|----------------------------------------------------|
G|----------------------------------------------------|
C|----------------------------------------------------|


D|----------------------------------------------------|
A|-------12-12-15p12-14p12----12----------------------|
F|-14b16-------------------15----15-14-13-12----------|
C|-------------------------------------------14-13----|
G|----------------------------------------------------|
C|----------------------------------------------------|

                                     T

D|----------------------------------------------------|
A|----------12----------------------------------------|
F|----------12------12-14-14b16~~---b21r19~~----------|
C|-12b14~~-----14~------------------------------------|
G|----------------------------------------------------|
C|----------------------------------------------------|



Pós-Solo:

 G5
Nemo sailing home
                Eb5  F5
Nemo letting go


   G5
D|----------------------------------------------------|
A|----------------------------------------------------|
F|----------------------------------------------------|
C|---5---5-5---5-5------------------------------------|
G|---5---5-5---5-5------------------------------------|
C|-5-5-5-5-5-5-5-5-5-5-5-5----------------------------|


            G5
D|----------------------------------------------------|
A|----------------------------------------------------|
F|----------------------------------------------------|
C|-8h108-7----5---5-5---5-5---------------------------|
G|-8-----8----5---5-5---5-5---------------------------|
C|----------5-5-5-5-5-5-5-5-5-5-5-5-5-5-5-5-----------|


   G5
D|----------------------------------------------------|
A|----------------------------------------------------|
F|----------------------------------------------------|
C|---5---5-5---5-5------------------------------------|
G|---5---5-5---5-5------------------------------------|
C|-5-5-5-5-5-5-5-5-5-5-5-5----------------------------|


            G5              Eb5 F5
D|----------------------------------------------------|
A|----------------------------------------------------|
F|--------------------------8--10---------------------|
C|-8h108-7----5---5-5---5-5-8--10---------------------|
G|-8-----8----5---5-5---5-5-6--8----------------------|
C|----------5-5-5-5-5-5-5-5---------------------------|



Terceiro Refrão:

G5                                 F5
   Oh how I wish for soothing rain
                             G5
All I wish is to dream again
                                 Bb5
My loving heart lost in the dark
                  F5               G5
For hope I'd give    my everything

                                F5
Oh how I wish for soothing rain
                             G5
Oh how i wish to dream again
                                  Bb5
Once and for all and all for once
             F5          G5  F5
Nemo my name    forever more
                 G5  Bb5  F5
My name forever more

G5  F5  G5  Bb5  F5

G5  F5  G5  Bb5  F5

( G5 )
  • 1
  • 2
  • 3
  • 4
  • 5
  • 6
  • 7
  • 8
  • 9
  • 10
  • 11
  • 12
    Acordes para:
      Composição: Tuomas HolopainenColaboração e revisão:

      0 comentários

        mostrar mais comentários

        Conseguiu tocar?

        14tocaram0ainda não

        Grave um vídeo tocando Nemo e mande pra gente!

        00:00 / 00:00
        outros vídeos desta música
        repetirqualidadeautomática
        • automática
        Outro vídeos desta música
          Capítulos
          • Início
          • Afinação
          • Tocando a música
          • Acordes da Introdução
          • Tocando Introdução
          • Ensinando Ritmo da Introdução
          • Acordes do Primeiro Refrão
          • Tocando Primeira Estrofe e Primeiro Refrão
          • Ensinando Ritmo do Primeiro Refrão
          • Acordes da Segunda Estrofe
          • Tocando Segunda Estrofe
          • Ensinando Ritmo da Segunda Estrofe
          • Tocando Segundo Refrão
          • Tocando Interlúdio
          • Ensinando Interlúdio
          • Tocando Solo
          • Ensinando Solo
          • Tocando Pós-Solo
          • Ensinando Pós-Solo
          • Acordes do Refrão Final
          • Tocando Refrão Final
          • Encerramento
          00:00 / 00:00
          automática
          • automática
          4 versões de Tab de baixoexibiçõescontribuições
          1 versão de Tab de bateriaexibiçõescontribuições
          1 versão de Tab de gaitaexibiçõescontribuições
          1 versão de Partiturasformatodownloadscontribuição
          fecharplay/pause subir/descer velocidade
            acordes
            fechar
            OK
            Feedback