Cifra Club

Complication

Nine Inch Nails

Tab de baixo: Principal
Tabbed By: Jack Flint
e-mail: *

Tuning: Drop D

This song took forever to figure out, but this is how it's played. 99% sure. And if it 
it still sounds good.

Bass comes in at 0:57

G|----------------------------------|
D|----------------------------------|
A|-------3h5-55-5-5---3h5--2--3-2---|
D|-0-0----------------------------5-|

Every 4th bar, he improvises a fill. It looks something like this:

G|----------------------------------|
D|-------------------------3-h5-3---|
A|-------3h5-55-5-5---3h5---------5-|
D|-0-0------------------------------|

Or:

G|------------------------------3---|
D|-------------------------3-h5---5-|
A|-------3h5-55-5-5---3h5-----------|
D|-0-0------------------------------|

This is a very short but intense song. Have fun with it :)

| /  slide up
| \  slide down
| h  hammer-on
| p  pull-off
| ~  vibrato
| +  harmonic
| x  Mute note
============================================================================
00:00 / 00:00
Outros vídeos desta música
Repetir
Outros vídeos desta música
Composição de Trent Reznor
165 exibições

0 comentários

Ver todos os comentários
00:00 / 00:00

Cifra Club Pro

Aproveite o Cifra Club com benefícios exclusivos e sem anúncios
Cifra Club Pro
Aproveite o Cifra Club com benefícios exclusivos e sem anúncios
OK