Cifra Club

Every Day Is Exactly The Same

Nine Inch Nails

Cifra: Principal (violão e guitarra)
tom: G
Notes:
This version was made for an acoustic-only act, it sounds real cool with a
military-style snare beat.  Some parts (particularly the bridge) include
synth parts, so it will need modifying for a full band setting.  I wrote
this with an acoustic act in mind.  This is my first published tab, so any
and all feedback would be greatly appreciated. If you save this to a file,
use font Lucida Console size 10.

Enjoy,
Chaas


Intro

E--------------------------------------------------------------------------|
A--------------------------------------------------------------------------|
D--------------------------------------------------------------------------|
G--------------------------------------------------------------------------|
B--------------------------------------------------------------------------|
e--3--2----2--0------3--2----5--3------3--2----2--0------3--2----8--7------|


Verse
part 1 - repeat 2x
E------------------------------------------------------------------|
A-------3333333333------3333333333------3333333333-----------------|
D-222222----------222222----------222222----------------4444444444-|
G-------------------------------------------------000000-----------|
B------------------------------------------------------------------|
e------------------------------------------------------------------|

part 2 - repeat 2x

  EM    CM        EM    CM         EM    CM     GM    F#M
E-0-----x---------0-----x----------0-----x-------3-----x----------|
A-2-----33333333332-----333333333333-----333333332-----x----------|
D-2222222---------2222222----------2222222-------0-----4444444444-|
G-1-----0---------1-----0----------1-----0-------0000003----------|
B-0-----1---------0-----1----------0-----1-------0-----2----------|
e-0-----0---------0-----0----------0-----0-------3-----2----------|


Chorus - Repeat 4x

  EM    AM        CM    GM
E-000000xxxxxxxxxxxxxxxx3333333333
A-22222200000000003333332222222222
D-22222222222222222222220000000000
G-11111122222222220000000000000000
B-00000022222222221111110000000000
e-00000000000000000000003333333333

Bridge
part 1
E----------------------------------------|
A----------------------------------------|
D----------------------------------------|
G---4---------4---------4---------4------|
B-2---3-2---2---3-2---2---3-2---2---3-2--|
e----------------------------------------|

part 2
E----------------------------------------|
A----------------------------------------|
D----------------------------------------|
G---4--4------4--4------4--4------4--4---|
B-2---3-2---2---3-2---2---3-2---2---3-2--|
e--------0---------0---------0---------0-|


Formula:

Intro
Verse
Chorus
Verse
Chorus
Verse
Chorus
Bridge
Chorus
00:00 / 00:00
Outros vídeos desta música
Repetir
Outros vídeos desta música
Composição de Trent Reznor
2.790 exibições
    • ½ Tom
    • A
    • Bb
    • B
    • C
    • Db
    • D
    • Eb
    • E
    • F
    • F#
    • G
    • Ab
  • Adicionar à lista

    0 comentários

    Ver todos os comentários

    Conseguiu tocar?

    0 Tocaram 0 Ainda não

    Grave um vídeo tocando Every Day Is Exactly The Same e nos envie!

    00:00 / 00:00

    Cifra Club Pro

    Aproveite o Cifra Club com benefícios exclusivos e sem anúncios
    Cifra Club Pro
    Aproveite o Cifra Club com benefícios exclusivos e sem anúncios
    OK