Cifra Club

Warning

Nine Inch Nails

Tab de baixo: Principal
 Drop C tuning


 Bass Fig I
F|---------------------------------------|
C|-0---0---12---12---12---10---10---12---|
G|---------------------------------------|
C|---------------------------------------|

F|------------------------------------------|
C|-15---15---12-12-10---10---10---12p10-12--|
G|------------------------------------------|
C|------------------------------------------|


 Bass Fig II
F|---------19---19---19---17---17---19---|
C|-0---0---------------------------------|
G|---------------------------------------|
C|---------------------------------------|

F|-22---22---19-19-17---17---17---19p17-19---|
C|-------------------------------------------|
G|-------------------------------------------|
C|-------------------------------------------|

 
 guitar riff I
D|----------------------------------------|
A|----------------------------------------|
F|----------------------------------------|
C|---------12---12---12---10---10---12p10-|
G|----------------------------------------|
C|-0---0----------------------------------|

D|------------------------------------------|
A|------------------------------------------|
F|------------------------------------------|
C|-15---15---12-12-10---10---10---12p10-12--|
G|------------------------------------------|
C|------------------------------------------|


 guitar riff II
D|------------------------------------------|
A|------------------------------------------|
F|------------------------------------------|
C|------------------------------------------|
G|------------------------3-------3---------|
C|----0---0h10-9b(10)---0---3---3---4b(5)---|


D|------------------------------------------|
A|------------------------------------------|
F|------------------------------------------|
C|------------------------------------------|
G|------------------------------------------|
C|----0---9b(10)--------0-0-3---5-5-5b(6)5--|

Legend:

p - pull-off
h - hammer-on
b - bend
00:00 / 00:00
Outros vídeos desta música
Repetir
Outros vídeos desta música
Composição de Trent Reznor
183 exibições

0 comentários

Ver todos os comentários

Entre para oCifra Club PRO

Tenha acesso a benefícios exclusivos no App e no Site

  • Chega de anúncios

  • Prioridade de compra em lançamentos

  • Mais recursos no app do Afinador

  • Atendimento Prioritário

  • Descontos nos produtos Cifra Club

  • Ajude a produzir mais conteúdo

00:00 / 00:00

Cifra Club Pro

Aproveite o Cifra Club com benefícios exclusivos e sem anúncios
Cifra Club Pro
Aproveite o Cifra Club com benefícios exclusivos e sem anúncios
OK