Cifra Club

Aero Zeppelin

Nirvana

Cifra: Principal (violão e guitarra)
Selo Cifra Club: esta cifra foi revisada para atender aos critérios oficiais da nossa Equipe de Qualidade.
tom: D
Nirvana
Album: Incesticide
Música: Aero Zeppelin

Intro/verse

E|-----------0--0----------------------|
B|----------------3-------3------------|
G|---------------------3-----3---------|
D|---2-2-------------------------------|
A|---2-2-------------------------------|
E|---0-0-------------------------------|

E|--------------0----------0-----------|
B|-----------3----3------3-------------|
G|---------------------3---------------|
D|---2-2-------------------------------|
A|---2-2-------------------------------|
E|---0-0-------------------------------|



E|--2-2--------------2-2-------------|
B|--2-2--1-1-2-5-5---2-2--2-2-1---1--|
G|--0-0--------------0-0--------3--3-|

The guitar-bridge thing

E|--5--5-5--5-5-5--5--8-8--8-8-8----------------------------|
B|--4--4-4--4-4-4--4--7-7--7-7-7----------------------------|
G|--2--2-2--2-2-2--2--5-5--5-5-5----------------------------|
D|--2--2-2--2-2-2--2--5-5--5-5-5---5------4------3------2---|
A|--0--0-0--0-0-0--0-----------------5--5---4--4---3--3---2-|

Aero Zeppelin

What's the season of love if you can't have everything
What's the reason of love if you can lose everything
What's the meaning of love, it's a crime if anything
What's the meaning of love, it's grand, it's grand

How can a culture can forget it's plan of yesterday
And you swear it's not a trend
Does it matter anyways
Barely heat the top of friend like it moves everyday
You could shit upon the stairs
You'll be friends
You'll be friends
You'll be friends
You'll be friends

All the kids have laid it out
And it's back is probably
Still it's subtle in the tape
Keep a form on equally
Now you know it's just the fact
Where the world is nowadays
And the day is what we learn
Does it matter anyways
Outros vídeos desta música
    60.598 exibições
      • ½ Tom
      • A
      • Bb
      • B
      • C
      • Db
      • D
      • Eb
      • E
      • F
      • F#
      • G
      • Ab
    • Adicionar à lista

    Afinação da cifra

    Afinador online

      0 comentários

      Ver todos os comentários

      Entre para o Cifra Club PRO

      Tenha acesso a benefícios exclusivos no App e no Site

      • Chega de anúncios

      • Badges exclusivas

      • Mais recursos no app do Afinador

      • Atendimento Prioritário

      • Aumente seu limite de lista

      • Ajude a produzir mais conteúdo

      Cifra Club Pro

      Aproveite o Cifra Club com benefícios exclusivos e sem anúncios
      Cifra Club Pro
      Aproveite o Cifra Club com benefícios exclusivos e sem anúncios
      Ops (: Contenido disponible sólo en portugués.
      OK