Cifra Club

Alcohol

Nirvana

Tab de baixo: Principal
exibições 565
(intro)
G|----------------------|
D|----------------------|
A|-3-------------5------|
E|--------3-------------|

(refrão)
G|-------------------------------------------|
D|-------------------------------------------|
A|-------------------------------------------|
E|-0--0--3-0-2-0--2-3--0--0--3-0-2-0--2-3----|

(verso)
G|------------------------------------|
D|------------------------------------|
A|------------------------------------|
E|-3-3-3----3-3-3----3-3-3----3-3-3*--| 

(riff 3)
G|-----------------------|
D|-----------------------|
A|--3-3-3--------3-5-----|
E|----------3-3----------|

(riff 4)
G|-----------------------|
D|-----------------------|
A|--3-3-3--------5-------|
E|----------3------------|
Colaboração e revisão:
  • Felipe Oliveira

0 comentários

    mostrar mais comentários

    Conseguiu tocar?

    0tocaram0ainda não

    Grave um vídeo tocando Alcohol e mande pra gente!

    00:00 / 00:00
    outros vídeos desta música
    repetirqualidadeautomática
    Outro vídeos desta música
      00:00 / 00:00
      automática
      OK