Cifra Club

Aneurysm

Nirvana

Tab de baixo: Principal
exibições 17.477
[Introdução] 


Parte 1 de 5 ( 4x )
G|----------------------------------------------|
D|----------------------------------------------|
A|----------3-3-3-3--2-2-2-2--0-0-0-0-----------|
E|-2-2-2-2--------------------------------------|

Parte 2 de 5 ( 8x )
G|----------------------------------------------|
D|----------------------------------------------|
A|---------3-3-3-3--2-2-2-2--0-0-0-0------------|
E|-2--2-2---------------------------------------|

Parte 3 de 5
G|----------------------------------------------|
D|----------------------------------------------|
A|----------------------------------------------|
E|-2--2--2--2----2--2--2--2--2-0----------------|

Parte 4 de 5 ( 2x )

G|----------------------------------------------|
D|----------------------------------------------|
A|-2-2-2--2-2-2--2-2-2---2-2-2--2-2-2--2-2-2----|
E|----------------------------------------------|

Parte 5 de 5
G|----------------------------------------------|
D|----------------------------------------------|
A|-5--5--5-5-5-5--5-5-5-5--5-5-5-5--------------|
E|----------------------------------------------|

G|----------------------------------------------|
D|----------------------------------------------|
A|-2-2-2--2-2-2--2-2-2---2-2-2--2-2-2--2-2-2----|
E|----------------------------------------------|

G|----------------------------------------------|
D|----------------------------------------------|
A|-5--5--5-5-5-5--5-5-5-5--5-5-5-5--------------|
E|----------------------------------------------|


[Primeira parte]

Come on over and do the twist...

Parte 1 de 04
G|----------------------------------------------|
D|----------------------------------------------|
A|-2-2-2--2-2-2--2-2-2---2-2-2--2-2-2--2-2-2----|
E|----------------------------------------------|

G|----------------------------------------------|
D|----------------------3-----------------------|
A|-5--5--5-5-5-5--5-3-5---5-5-4-3---------------|
E|----------------------------------------------|

Parte 2 de 4
G|----------------------------------------------|
D|----------------------------------------------|
A|-2-2-2--2-2-2--2-2-2---2-2-2--2-2-2--2-2-2----|
E|----------------------------------------------|

G|----------------------------------------------|
D|----------------------------------------------|
A|-5--5--5-5-5-5--5-5-5-5--5-3-5-5--------------|
E|----------------------------------------------|

Parte 3 de 4
G|----------------------------------------------|
D|----------------------------------------------|
A|-2-2-2--2-2-2--2-2-2---2-2-2--2-2-2--2-2-2----|
E|----------------------------------------------|

G|----------------------------------------------|
D|---------5-7---7-7-5-7------------------------|
A|-5--5--5-----5--------------------------------|
E|----------------------------------------------|

Parte 4 de 4
G|----------------------------------------------|
D|----------------------------------------------|
A|-2-2-2--2-2-2--2-2-2---2-2-2--2-2-2--2-2-2----|
E|----------------------------------------------|

G|----------------------------------------------|
D|----------------------------------------------|
A|-5—5--5-5-5-5--5-5-5-5--5-5--5/12-------------|
E|----------------------------------13\---------|


[ Refrão ]

Beat me outta me (beat it, beat it)...

Parte 1 de 2 (7x )
G|----------------------------------------------|
D|----------------------------------------------|
A|----------------------------------------------|
E|-2-2-4-5-5-5-5-5--7-7-7-6-5-5-5-0-------------|

Parte 2 de 2
G|----------------------------------------------|
D|----------------------------------------------|
A|----------------------------------------------|
E|-2-2-4-5-5-5-5-5--7-7-7-6-5-5-5---------------|


Segunda parte 

Come on over and do the twist...

Parte 1 de 5
G|----------------------------------------------|
D|----------------------------------------------|
A|-2-2-2--2-2-2--2-2-2---2-2-2--2-2-2--2-2-2----|
E|----------------------------------------------|

G|----------------------------------------------|
D|----------------------3-----------------------|
A|-5--5--5-5-5-5--5-3-5---5-5-4-3-2-------------|
E|----------------------------------------------|

Parte 2 de 5
G|----------------------------------------------|
D|----------------------------------------------|
A|-2-2-2--2-2-2--2-2-2---2-2-2--2-2-2--2-2-2----|
E|----------------------------------------------|

G|----------------------------------------------|
D|----------------------------------------------|
A|-5--5--5-5-5-5--5-5-5-5--5-3-5-5--------------|
E|----------------------------------------------|

Parte 3 de 5
G|----------------------------------------------|
D|----------------------------------------------|
A|-2-2-2--2-2-2--2-2-2---2-2-2--2-2-2--2-2-2----|
E|----------------------------------------------|

G|----------------------------------------------|
D|---------5-7---7-7-5-7------------------------|
A|-5--5--5-----5--------------------------------|
E|----------------------------------------------|

Parte 4 de 5
G|----------------------------------------------|
D|----------------------------------------------|
A|-2-2-2--2-2-2--2-2-2---2-2-2--2-2-2--2-2-2----|
E|----------------------------------------------|

G|----------------------------------------------|
D|----------------------------------------------|
A|-5—5--5-5-5-5--5-5-5-5--5-5--5/12-------------|
E|----------------------------------13\---------|

Refrão 02

Beat me outta me (beat it, beat it)...

Parte 1 ( 8x )
G|----------------------------------------------|
D|----------------------------------------------|
A|----------------------------------------------|
E|-2-2-4-5-5-5-5-5--7-7-7-6-5-5-5-0-------------|

[Introdução 02]

Parte 1 de 2
G|----------------------------------------------|
D|----------------------------------------------|
A|----------------------------------------------|
E|-2--2--2--2----2--0---------------------------|

Parte 2 de 2 ( 4x )
G|----------------------------------------------|
D|----------------------------------------------|
A|----------3-3-3-3--2-2-2-2--0-0-0-0-----------|
E|-2-2-2-2--------------------------------------|


[Terceira parte final] 

She keeps it pumping straight to my heart

Parte 1 de 2 ( 10x )
G|----------------------------------------------|
D|----------------------------------------------|
A|---------3-3-3-3--2-2-2-2--0-0-0-0------------|
E|-2--2-2---------------------------------------|

Parte 02 de 02
G|----------------------------------------------|
D|----------------------------------------------|
A|----------------------------------------------|
E|-2--2--2--2---2--2--2--2----------------------|
Composição: Dave Grohl / Krist Novoselic / Kurt CobainColaboração e revisão:
  • Reginaldo Costa

0 comentários

    mostrar mais comentários

    Conseguiu tocar?

    8tocaram0ainda não

    Grave um vídeo tocando Aneurysm e mande pra gente!

    00:00 / 00:00
    outros vídeos desta música
    repetirqualidadeAutomático
    Outro vídeos desta música
      00:00 / 00:00
      OK