Cifra Club

Aprenda

Been A Son

Nirvana

Cifra: Principal (violão e guitarra)
tom: C
Afinação Drop D: D A D G B E 

[Introdução/Estrofe - Riff Principal]
 
  A4/D        A4/D    
E|------------------------------------------------------|
B|-3-3--------3--3-3-3----------------------------------|
G|-2-2--------2--2-2-2----------------------------------|
D|-0-0--------0--0-0-0----------------------------------| 8X
A|-----3-2-0-----------3-2-0-0--------------------------|
E|------------------------------------------------------|

[Riff Principal Variação]

   A4          A4    
E|-------------------------------------------------------|
B|-3-3---------3--3-3-3----------------------------------|
G|-2-2---------2--2-2-2----------------------------------|
D|-0-0---------0--0-0-0----------------------------------| 8X
A|-0-0--3-2-0--0--0-0-0-3-2-0-0--------------------------|
E|-------------------------------------------------------|

[Primeira Parte]

A4/D               A4/D                  A4/D
   She should have stayed away from friends
              A4/D                 A4/D
She should've had more time to spend
                A4/D               A4/D
She should have died when she was born
                A4/D                 A4/D
She should have worn the crown of thorns

[Refrão - Parte 1]

   G5 D5 F5   E5
E|--------------------------------------------------------------|
B|--------------------------------------------------------------|
G|--------------------------------------------------------------|
D|-5-5-0-3-3-3-2--2-2-2-----------------------------------------| 3X
A|-5-5-0-3-3-3-2--2-2-2-3-2-0-0---------------------------------|
E|-5-5-0-3-3-3-2--2-2-2-----------------------------------------|

[Refrão - Parte 2]

   G5 D5 F5   E5
E|--------------------------------------------------------------|
B|--------------------------------------------------------------|
G|--------------------------------------------------------------|
D|-5-5-0-3-3-3-2--2-2-2-2-2-2-----------------------------------| 1X
A|-5-5-0-3-3-3-2--2-2-2-2-2-2-----------------------------------|
E|-5-5-0-3-3-3-2--2-2-2-2-2-2-----------------------------------|

[Refrão]

          G5 D5 F5    E5 
She should have been a son
          G5 D5 F5    E5
She should have been a son
          G5 D5 F5    E5
She should have been a son
          G5 D5 F5    E5 
She should have been a son

[Riff Principal]

  A4/D        A4/D    
E|------------------------------------------------------|
B|-3-3--------3--3-3-3----------------------------------|
G|-2-2--------2--2-2-2----------------------------------|
D|-0-0--------0--0-0-0----------------------------------| 4X
A|-----3-2-0-----------3-2-0-0--------------------------|
E|------------------------------------------------------|

[Segunda Parte]

A4/D               A4/D                 A4/D
   She should have made her mother proud
                A4/D               A4/D
She should have stood out in a crowd
                A4/D             A4/D
She should have had another chance
                A4/D              A4/D
She should have fallen on love stance

[Refrão - Parte 1]

   G5 D5 F5   E5
E|--------------------------------------------------------------|
B|--------------------------------------------------------------|
G|--------------------------------------------------------------|
D|-5-5-0-3-3-3-2--2-2-2-----------------------------------------| 3X
A|-5-5-0-3-3-3-2--2-2-2-3-2-0-0---------------------------------|
E|-5-5-0-3-3-3-2--2-2-2-----------------------------------------|

[Refrão - Parte 2]

   G5 D5 F5   E5
E|--------------------------------------------------------------|
B|--------------------------------------------------------------|
G|--------------------------------------------------------------|
D|-5-5-0-3-3-3-2--2-2-2-2-2-2-----------------------------------| 1X
A|-5-5-0-3-3-3-2--2-2-2-2-2-2-----------------------------------|
E|-5-5-0-3-3-3-2--2-2-2-2-2-2-----------------------------------|

[Refrão]

          G5 D5 F5    E5 
She should have been a son
          G5 D5 F5    E5
She should have been a son
          G5 D5 F5    E5
She should have been a son
          G5 D5 F5    E5 
She should have been a son

[Solo]

E|---------------------------------------------------------------|
B|-3-3--------3--3-3-3---------------------3-3-3-3---------------|
G|-----5-4-2----------5-4-2--2-4-5-4-5-4-2---------5-4-2---------|
D|---------------------------------------------------------------| 2X
A|---------------------------------------------------------------|
E|---------------------------------------------------------------|

[Solo Variação]

E|---------------------------------------------------------------|
B|-3-3-------3--3-3-3----------------------3--3-3-3--------------|
G|-2-2-------2--2-2-2----------------------2--2-2-2--------------|
D|-0-0-------0--0-0-0----------------------0--0-0-0--------------| 2X
A|-----3-2-0----------3-2-0--0-2-3-2-3-2-0----------3-2-0--------|
E|---------------------------------------------------------------|

[Refrão - Parte 1]

   G5 D5 F5   E5
E|--------------------------------------------------------------|
B|--------------------------------------------------------------|
G|--------------------------------------------------------------|
D|-5-5-0-3-3-3-2--2-2-2-----------------------------------------| 3X
A|-5-5-0-3-3-3-2--2-2-2-3-2-0-0---------------------------------|
E|-5-5-0-3-3-3-2--2-2-2-----------------------------------------|

[Refrão - Parte 2]

   G5 D5 F5   E5
E|--------------------------------------------------------------|
B|--------------------------------------------------------------|
G|--------------------------------------------------------------|
D|-5-5-0-3-3-3-2--2-2-2-2-2-2-----------------------------------| 1X
A|-5-5-0-3-3-3-2--2-2-2-2-2-2-----------------------------------|
E|-5-5-0-3-3-3-2--2-2-2-2-2-2-----------------------------------|

[Refrão]

G5 D5 F5    E5 
    Been a son
          G5 D5 F5    E5 
She should have been a son
          G5 D5 F5    E5
She should have been a son
          G5 D5 F5    E5
She should have been a son
          G5 D5 F5    E5 
She should have been a son

[Riff Principal]

  A4/D        A4/D    

E|------------------------------------------------------|
B|-3-3--------3--3-3-3----------------------------------|
G|-2-2--------2--2-2-2----------------------------------|
D|-0-0--------0--0-0-0----------------------------------| 4X
A|-----3-2-0-----------3-2-0-0--------------------------|
E|------------------------------------------------------|

[Terceira Parte]

A4/D               A4/D                  A4/D
   She should have stayed away from friends
              A4/D                 A4/D
She should've had more time to spend
                A4/D               A4/D
She should have died when she was born
                A4/D                 A4/D
She should have worn the crown of thorns

[Refrão - Parte 1]

  G5 D5 F5   E5
E|--------------------------------------------------------------|
B|--------------------------------------------------------------|
G|--------------------------------------------------------------|
D|-5-5-0-3-3-3-2--2-2-2-----------------------------------------| 3X
A|-5-5-0-3-3-3-2--2-2-2-3-2-0-0---------------------------------|
E|-5-5-0-3-3-3-2--2-2-2-----------------------------------------|

[Refrão - Parte 2]

   G5 D5 F5   E5
E|--------------------------------------------------------------|
B|--------------------------------------------------------------|
G|--------------------------------------------------------------|
D|-5-5-0-3-3-3-2--2---------------------------------------------| 1X
A|-5-5-0-3-3-3-2--2---------------------------------------------|
E|-5-5-0-3-3-3-2--2---------------------------------------------|

[Refrão]

          G5 D5 F5    E5 
She should have been a son
          G5 D5 F5    E5
She should have been a son
          G5 D5 F5    E5
She should have been a son
          G5 D5 F5    E5 
She should have been a son
Composição de Kurt Cobain
Colaboração e revisão:
  • Ariel Andrade
  • Élison Duarte
74.471 exibições
    • ½ Tom
    • A
    • Bb
    • B
    • C
    • Db
    • D
    • Eb
    • E
    • F
    • F#
    • G
    • Ab
  • Adicionar à lista

    0 comentários

    Ver todos os comentários

    Conseguiu tocar?

    15 Tocaram 0 Ainda não

    Grave um vídeo tocando Been A Son e nos envie!

    00:00 / 00:00
    Outros vídeos desta música
    Repetir Qualidade Automático
    Outros vídeos desta música
    00:00 / 00:00
    Automático

    Cifra Club Pro

    Aproveite o Cifra Club com benefícios exclusivos e sem anúncios
    Cifra Club Pro
    Aproveite o Cifra Club com benefícios exclusivos e sem anúncios
    OK