Cifra Club

Blandest

Nirvana

Cifra: Principal
exibições 11.048
Tom: C
Intro:

e|---------------------|
B|---------------------|
G|---------------------|
D|---------------------|   8x
A|---6/8---5---0-------|
E|---4/6-----------4---|


Verso(no mesmo tom que a introdução):

You're my favorite
Of my saviors
You're my favorite
Oh no

Yes you're my favorite
Of my favors
You're my razor
Oh no

Refrão:
G#
Hey!
        F#  F
And the situation wasn't quite
G#   G          E
As intense as I trought
       F#   F
I need you around
     G#           G         E                          
To remind me when not to be calm(to remind me what not to become)
        F#  F
And the situation wasn't quite
G#   G          E
As intense as I trought
       F#   F
I need you around
     G#          G         A# G
To remind mewhen not to be calm
( A#,G )
Calm, calm, calm

Verso

Refrão

Solo: 

e|-----------------------------|
B|-----------------------------|
G|-----------------------------|
D|---------5/7-----------------|  4x
A|-----------------------------|
E|---4/6---------4/6---4---0---|

Intro 4x

Verso 1x

Refrão

Intro
Acordes para:
    Composição: Kurt CobainColaboração e revisão:
    • Ana Lourenço

    0 comentários

      mostrar mais comentários

      Conseguiu tocar?

      2tocaram0ainda não

      Grave um vídeo tocando Blandest e mande pra gente!

      00:00 / 00:00
      outros vídeos desta música
      repetirqualidadeautomática
      Outro vídeos desta música
        00:00 / 00:00
        automática
        OK