Enviar cifraEntrar

Breed

Nirvana

Cifra: Principal
exibições 146.676
Tom: F#
Intro:
     

        F#5    A5
E|--2-2-2-2/5-5---------------------------------------------------------------|
B|--4-4-4-4/7-7---------------------------------------------------------------|
G|----------------------------------------------------------------------------| (Aprox. 4 Vezes)
D|----------------------------------------------------------------------------| 
A|----------------------------------------------------------------------------|
E|----------------------------------------------------------------------------|


Riff 1:


           C#5
E|--9-9-9-9-9-9-9-------------------------------------------------------------|
B|--11-11-11-11-11--5~-5~-----------------------------------------------------|
G|----------------------------------------------------------------------------| (Durante toda a estrofe)
D|----------------------------------------------------------------------------| 
A|----------------------------------------------------------------------------|
E|----------------------------------------------------------------------------|


(Riff 1)
I don't care (x5)
Care if I'm old
I don't mind (x4)
Mind, don't have a mind
Get away (x4)
Away, away from your home
I'm afraid (x4)
Afraid of a ghost

Refrão:

      D5   A5   C5   B5
E|-------5-5------------------------------------------------------------------|
B|--5-5--7-7--3-3--2-2--------------------------------------------------------|
G|--7-7-------5-5--4-4--------------------------------------------------------| 
D|----------------------------------------------------------------------------| 
A|----------------------------------------------------------------------------|
E|----------------------------------------------------------------------------|


(Riff 1)
Even if you have
Even if you need
I don't mean to stare
We don't have to breed
We could plant a house
We could build a tree
I don't even care
We could have all three
(Riff 1)
She said (x8)

(Riff 1)
I don't care (x4)
Care if I'm old
I don't mind (x4)
Mind, I don't have a mind
Get away (x4)
Away, away from your home
I'm afraid (x4)
Afraid of a ghost

(Refrão)
Even if you have
Even if you need
I don't mean to stare
We don't have to breed
We can plant a house
We can build a tree
I don't even care
We could have all three
She said (x8)

Solo:

E|----------------------------------------------------------------------------|
B|----------------------------------------------------------------------------|
G|--11--11--11--11---11--11--11--11---11--11--11--11---11--10--9--7\----------|
D|----------------------------------------------------------------------------|
A|---9---9---9---9----9---9---9---9----9---9---9---9----9---8--7--5\----------|
E|----------------------------------------------------------------------------|


E|----------------------------------------------------------------------------|
B|----------------------------------------------------------------------------|
G|--/14--14--14--14---14--14--14--14---14--14--14--14---14--13-12-(12)\-------|
D|----------------------------------------------------------------------------|
A|--/12--12--12--12---12--12--12--12---12--12--12--12---12--11-10-(10)\-------|
E|----------------------------------------------------------------------------|


E|----------------------------------------------------------------------------|
B|----------------------------------------------------------------------------|
G|--/17--17--17--17---17--17--17--17---17--17--17--17---17--18--16--15--14\---|
D|----------------------------------------------------------------------------|
A|--/15--15--15--15---15--15--15--15---15--15--15--15---15--16--14--13--12\---|
E|----------------------------------------------------------------------------|


E|----------------------------------------------------------------------------|
B|----------------------------------------------------------------------------|
G|--/19--19--19--19---19--19--19--19---19--19--19--19---20--20--21--21--22--22|
D|----------------------------------------------------------------------------|
A|--/17--17--17--17---17--17--17--17---17--17--17--17---18--18--19--19--20--20|
E|----------------------------------------------------------------------------|


(Refrão)
Even if you have
Even if you need
I don't mean to stare
We don't have to breed
We can plant a house
We can build a tree
I don't even care
We could have all three
She said (x7)
She said... good!
  • 1
  • 2
  • 3
  • 4
  • 5
  • 6
  • 7
  • 8
  • 9
  • 10
  • 11
  • 12
    Acordes para:
      Composição: Dave Grohl / Krist Novoselic / Kurt CobainColaboração e revisão:
      • Leandro Damasceno
      • Brenno Pereira
      • Felipe Nunes

      0 comentários

        mostrar mais comentários
        00:00 / 00:00
        outros vídeos desta música
        repetirqualidadeautomática
        • automática
        Outro vídeos desta música
          00:00 / 00:00
          automática
          • automática
          fecharplay/pause subir/descer velocidade
            Acordes para:violão e guitarra
            acordes
            fechar
            OK