Cifra Club

Cocaine Girl

Nirvana

Cifra: Principal
exibições 37.022
Tom: C
Riff A

E|-------------------------------------
B|-------------------------------------
G|------7---9b10---7-------7-----7-----
D|--9-9---9----------9-6-6---7-7-------
A|-------------------------------------
E|-------------------------------------


Riff B

E|---------------------
B|---------------------
G|------7-9b10p7-------
D|--9-9----------------
A|---------------------
E|---------------------

Fill A

e|---------------------
b|--10b-10b-7----------
g|------------9-7------
d|---------------------
a|---------------------
e|---------------------

Fill B

E|---------------------
B|---------------------
G|--9b10~--7b8r7-------
D|---------------------
A|---------------------
E|---------------------

Fill C

E|---------------------
B|---------------------
G|----7-7h9p7----------
D|--9---------9-7-9----
A|---------------------
E|---------------------

Fill D

E|-------
B|-------
G|-------
D|--9----
A|-------
E|-------

Okay heres the solo:

e|--------------------------------------------
b|-12-12-12-10s7-----------7-10-10-10-12h15---
g|---------------9-7---7-9--------------------
d|-------------------9------------------------

e|--------------------------------------------
b|-12h15-12h15-12h15-15-12-10-12-10-7---------
g|------------------------------------9-7-----
d|----------------------------------------9---

e|--------------------------------------------
b|--------------------------------------------
g|--7-9-9b10-7--------------------------------
d|-------------9-7----------------------------


Order:

RIff A x7
RIff B x3
Fill A x1
Riff B x2
Fill B x1
Riff A x5
Riff B x3
Fill C x1
Riff B x2
Fill D x1
Solo
Riff A x7
Riff B x3
Acordes para:
    Colaboração e revisão:
    • Ramon Machado

    0 comentários

      mostrar mais comentários

      Conseguiu tocar?

      6tocaram0ainda não

      Grave um vídeo tocando Cocaine Girl e mande pra gente!

      00:00 / 00:00
      outros vídeos desta música
      repetirqualidadeautomática
      Outro vídeos desta música
        00:00 / 00:00
        automática
        OK