Notificações Amigos pendentes

      Nirvana

      Come As You Are

      2.224.670 exibições
      Tom: E
      Intro: F#m7(11)/E  E (2x)
      
      
      E|------------------------------------------
      B|------------------------------------------
      G|------------------------------------------
      D|------------------------------------------
      A|-----------0----0------------2---------2--
      E|--0--0-1-2----2---2--2--1--0----0---0-----
      
      
      E|------------------------------------------
      B|------------------------------------------
      G|------------------------------------------
      D|------------------------------------------
      A|-----------0----0------------2---------2--
      E|-----0-1-2----2---2--2--1--0---0---0------
      
      
       F#m7(11)/E   E
      Come as you   are
              F#m7(11)/E   E           F#m7(11)/E
      As you were, as I   want you to be
             E
      As a friend
             F#m7(11)/E   E       F#m7(11)/E
      As a friend, as an  old enemy
                 E
      Take your time
            F#m7(11)/E         E               F#m7(11)/E
      Hurry up, the choice is yours, don't be late
              E
      Take a rest
             F#m7(11)/E    E
      As a friend, as an   old...
       
           F#m7(11)/E  A
      Memory (4x)
      
       F#m7(11)/E     E
      Come dowsed in mud
                 F#m7(11)/E   E           F#m7(11)/E
      Soaked in bleach, as I want you to be
             E
      As a trend,
             F#m7(11)/E     E
      As a friend,    as an old...
         F#m7(11)/E  A
      Memory (4x)
      
      B9        D           B9           D
        And I swear that I don't have a gun
               B9           D
        No, I don't have a gun
               B9           D
        No, I don't have a gun
      
      Solo:
      
      E|---------------------------
      B|---------------------------
      G|--6-6-6-6--6--9--11-11/6---
      D|---------------------------
      A|---------------------------
      E|---------------------------
      
      
      E|---------------------------
      B|---------------------------
      G|--6-6--9--11-11/6----------
      D|---------------------------
      A|---------------------------
      E|---------------------------
      
      
      E|----------------------------------------
      B|----------------------------------------
      G|--6-6--9--11--11--11\13-13-13-11--9-9/6-
      D|----------------------------------------
      A|----------------------------------------
      E|----------------------------------------
      
        Composição: Dave Grohl / Krist Novoselic / Kurt CobainColaboração e revisão:
        • cido
        • ericcobain
        • DYO
        • ithallocobain
        • +14

        Comentários 240

        140 .
        • darkness darkness: Em 27/05/2016 13:35

          MANO VCS SAO MT BONS EM ENSINAR VCS SAO FODAS SEIO MEMO

        • joao joao: Em 25/05/2016 19:38

          o solo nao e assim


          O SOLO E ASSIM:


          E
          B
          G
          D-- -- -- -- 6-- 8 -/6 2X 6 -- 8-13 -- 13 -- 13 --11/6
          A
          E

          • willian willian: Em 29/06/2016 19:03

            Se tem demência ?

        • enzo.costagomes enzo.costagomes: Em 01/01/2016 17:26

          n fica legal no violao

          • Luan Luan: Em 05/01/2016 01:27

            O riff fica perfeito

          • Luan Luan: Em 05/01/2016 01:28

            Comentário removido

          • Flavio Flavio: Em 02/04/2016 22:08

            faz uma pestana na primeira casa e manda o riff normalmente se vai sentir a diferença no violão

        • Henry Henry: Em 11/08/2015 13:02

          cade o resto

        • giovane giovane: Em 22/03/2015 12:56

          A musica é 1/2 tom a baixo,por isso ta em E

          • leo leo: Em 16/02/2016 23:59

            Na verdade é um tom abaixo

        140 cancelar
        0:00 / 0:00
        Esta versão de cifra não é usada na videoaula. Exiba a cifra correta.
        3 versões de bateria exibições contribuição e correção
        1 versão de gaita exibições contribuição e correção
        1 versão de partiturasformatodownloadscontribuição
        play/pausefechar subir/descer velocidade
        6ª corda E5ª corda A4ª corda D3ª corda G2ª corda B1ª corda E
          acordes
          publicidade
          fechar
          ok