Cifra Club

Come As You Are

Nirvana

Cifra: Principal (violão e guitarra)
exibições 2.655.437
Tom: Fm (forma dos acordes no tom de F#m) Afinação: Eb Ab Db Gb Bb Eb
[Intro 4x]

Riff - Parte 1
E|------------------------------------------|
B|------------------------------------------|
G|------------------------------------------|
D|------------------------------------------|
A|---------0---0---------2------------------|
E|-0-0-1-2---2---2-2-1-0---0-0--------------|

Riff - Parte 2
E|------------------------------------------|
B|------------------------------------------|
G|------------------------------------------|
D|------------------------------------------|
A|-2-------0---0---------2------------------|
E|---0-1-2---2---2-2-1-0---0-0--------------|

[Primeira Parte]

(Riff - Introdução)
Come as you are, as you were
As I want you to be
As a friend, as a friend
As a known enemy

Take your time, hurry up
Choice is yours, don't be late
Take a rest, as a friend


[Refrão]

               F#m7(11)/E  A9
As an old memory,         yeah
    F#m7(11)/E  A9
Memory,         yeah
    F#m7(11)/E  A9
Memory,         yeah
    F#m7(11)/E  A9
Memory,         yeah


[Segunda Parte]

(Riff - Introdução)
Come doused in mud, soaked in bleach
As I want you to be
As a trend, as a friend


[Refrão]

               F#m7(11)/E  A9
As an old memory,         yeah
    F#m7(11)/E  A9
Memory,         yeah
    F#m7(11)/E  A9
Memory,         yeah
    F#m7(11)/E  A9
Memory,         yeah


[Terceira Parte]

B9         D           B9           D
  And I swear that I don't have a gun
      B9           D
No, I don't have a gun
      B9           D
No, I don't have a gun


[Repete Intro 2x]

Parte 1
E|------------------------------------------|
B|------------------------------------------|
G|------------------------------------------|
D|------------------------------------------|
A|---------0---0---------2------------------|
E|-0-0-1-2---2---2-2-1-0---0-0--------------|

Parte 2
E|------------------------------------------|
B|------------------------------------------|
G|------------------------------------------|
D|------------------------------------------|
A|-2-------0---0---------2------------------|
E|---0-1-2---2---2-2-1-0---0-0--------------|
                                             

[Solo] 

Parte 1
E|------------------------------------------|
B|------------0-0-0--0----------0-0-0--0----|
G|-6-6-6-6-—6—9-9-11-11/6--6~-6-9-9-11-11/6-|
D|------------------------------------------|
A|------------------------------------------|
E|------------------------------------------|

Parte 2
E|------------------------------------------|
B|------0-0-0--0--0-----0--0--0--0--0-0-0---|
G|-6~-6-9-9-11-11-11/13-13-13-11-11-9-9-----|
D|------------------------------------------|
A|------------------------------------------|
E|------------------------------------------|

Parte 3
E|------------------------------------------|
B|------0-0-0--0----------0-0-0--0----------|
G|-6~—6—9-9-11-11/6--6~-6-9-9-11-11/6-------|
D|------------------------------------------|
A|------------------------------------------|
E|------------------------------------------|

Parte 2
E|------------------------------------------|
B|------0-0-0--0--0-----0--0--0--0--0-0-0---|
G|-6~-6-9-9-11-11-11/13-13-13-11-11-9-9-----|
D|------------------------------------------|
A|------------------------------------------|
E|------------------------------------------|

Parte 3
E|------------------------------------------|
B|------0-0-0--0----------0-0-0--0----------|
G|-6~—6—9-9-11-11/6--6~-6-9-9-11-11/6-------|
D|------------------------------------------|
A|------------------------------------------|
E|------------------------------------------|

Parte 2
E|------------------------------------------|
B|------0-0-0--0--0-----0--0--0--0--0-0-0---|
G|-6~-6-9-9-11-11-11/13-13-13-11-11-9-9-----|
D|------------------------------------------|
A|------------------------------------------|
E|------------------------------------------|

Parte 3 
E|------------------------------------------|
B|------0-0-0--0----------0-0-0--0----------|
G|-6~—6—9-9-11-11/6--6~-6-9-9-11-11/6-------|
D|------------------------------------------|
A|------------------------------------------|
E|------------------------------------------|

Parte 2
E|------------------------------------------|
B|------0-0-0--0--0-----0--0--0--0--0-0-0---|
G|-6~-6-9-9-11-11-11/13-13-13-11-11-9-9-----|
D|------------------------------------------|
A|------------------------------------------|
E|------------------------------------------|

[Refrão]

     F#m7(11)/E  A9
Memory,         yeah
    F#m7(11)/E  A9
Memory,         yeah
     F#m7(11)/E  A9
Memory,         yeah
    F#m7(11)/E  A9
Memory,         yeah

[Terceira Parte]

B9         D           B9           D
  And I swear that I don't have a gun
      B9           D
No, I don't have a gun
      B9           D
No, I don't have a gun
      B9           D
No, I don't have a gun
      B9           D
No, I don't have a gun


[Intro]

(Riff - Introdução)
Memory, yeah
Memory, yeah

0 comentários

mostrar mais comentários
00:00 / 00:00
outros vídeos desta música
repetir qualidade Automático
Outro vídeos desta música
00:00 / 00:00
Automático
Capítulos
  • Tocando a música
  • Apresentação / Equipamentos
  • Afinação
  • Tocando Introdução
  • Riff Introdução
  • Riff Introdução - Parte 1 de 2
  • Riff Introdução - Parte 2 de 2
  • Dicas Primeira Parte
  • Tocando Primeira Parte
  • Acordes Refrão
  • Tocando Refrão
  • Ritmo do Refrão
  • Dicas Segunda Parte
  • Tocando Segunda Parte - Refrão
  • Acordes Terceira Parte
  • Tocando Terceira Parte
  • Ritmo da Terceira Parte
  • Dicas do Solo
  • Tocando Solo
  • Ensinando Solo
  • Solo - Parte 1 de 3
  • Solo - Parte 2 de 3
  • Solo - Parte 3 de 3
  • Dicas de repetição
  • Tocando trecho repetição
  • Dicas finais
  • Tocando final
  • Encerramento
OK