Cifra Club

Come As You Are

Nirvana

Cifra: Academy-violao (violão e guitarra)
tom: G
[Intro] 

[Riff] 

Parte 1 de 2
E|----------------------------------------------------|
B|----------------------------------------------------|
G|----------------------------------------------------|
D|----------------------------------------------------|
A|----------0---0----------2--------------------------|
E|-0-0-1-2----2---2-2-1-0----0-0----------------------|

Parte 2 de 2
E|----------------------------------------------------|
B|----------------------------------------------------|
G|----------------------------------------------------| (3x)
D|----------------------------------------------------|
A|-2--------0---0----------2--------------------------|
E|---0-1-2----2---2-2-1-0----0-0----------------------|

[Primeira Parte] 

[Riff Primeira Parte]

E|----------------------------------------------------|
B|----------------------------------------------------|
G|----------------------------------------------------| (8x)
D|----------------------------------------------------|
A|-2--------0---0----------2--------------------------|
E|---0-1-2----2---2-2-1-0----0-0----------------------|

Come as you are
As you were
As I want you to be
As a friend
As a friend
As an old enemy
Take your time
Hurry up
Choice is yours
Don't be late
Take a rest
As a friend

[Refrão] 

               F#m  A
As an old memory
     F#m  A
Memory
     F#m  A
Memory
     F#m  A
Memory

[Segunda Parte] 

[Riff Segunda Parte]

Parte 1 de 2
E|----------------------------------------------------|
B|----------------------------------------------------|
G|----------------------------------------------------|
D|----------------------------------------------------|
A|----------0---0----------2--------------------------|
E|-0-0-1-2----2---2-2-1-0----0-0----------------------|

Parte 2 de 2
E|----------------------------------------------------|
B|----------------------------------------------------|
G|----------------------------------------------------| (3x)
D|----------------------------------------------------|
A|-2--------0---0----------2--------------------------|
E|---0-1-2----2---2-2-1-0----0-0----------------------|

Come doused in mud
Soaked in bleach
As I want you to be
As a trend
As friend

[Refrão] 

               F#m  A
As an old memory
     F#m  A
Memory
     F#m  A
Memory
     F#m  A
Memory

[Terceira Parte] 

B        D
   And I swear that
   B              D
I don't have a gun
       B              D
No, I don't have a gun
       B              D
No, I don't have a gun

[Interlúdio] 

[Riff Interlúdio]

Parte 1 de 2
E|----------------------------------------------------|
B|----------------------------------------------------|
G|----------------------------------------------------|
D|----------------------------------------------------|
A|----------0---0----------2--------------------------|
E|-0-0-1-2----2---2-2-1-0----0-0----------------------|

Parte 2 de 2
E|----------------------------------------------------|
B|----------------------------------------------------|
G|----------------------------------------------------|
D|----------------------------------------------------|
A|-2--------0---0----------2--------------------------|
E|---0-1-2----2---2-2-1-0----0-0----------------------|

[Solo] 

E|----------------------------------------------------|
B|----5-7----5-7----5-7-9--7--5-----------------------|
G|-6------6------6--------------6---------------------| (4x)
D|----------------------------------------------------|
A|----------------------------------------------------|
E|----------------------------------------------------|


[Refrão] 

     F#m  A
Memory
     F#m  A
Memory
     F#m  A
Memory
     F#m  A
Memory

[Terceira Parte] 

B        D
   And I swear that
   B              D
I don't have a gun
       B              D
No, I don't have a gun
       B              D
No, I don't have a gun
       B              D
No, I don't have a gun
       B              D
No, I don't have a gun

[Riff Final] 

Parte 1 de 3
E|----------------------------------------------------|
B|----------------------------------------------------|
G|----------------------------------------------------|
D|----------------------------------------------------|
A|----------0---0----------2--------------------------|
E|-0-0-1-2----2---2-2-1-0----0-0----------------------|

Parte 2 de 3
E|----------------------------------------------------|
B|----------------------------------------------------|
G|----------------------------------------------------| (3x)
D|----------------------------------------------------|
A|-2--------0---0----------2--------------------------|
E|---0-1-2----2---2-2-1-0----0-0----------------------|

Parte 3 de 3
E|----------------------------------------------------|
B|----------------------------------------------------|
G|----------------------------------------------------|
D|----------------------------------------------------|
A|-2--------------------------------------------------|
E|---0-1-2--------------------------------------------|
00:00 / 00:00
Outros vídeos desta música
Repetir
Outros vídeos desta música
Composição de Kurt Cobain
Colaboração e revisão:
  • Thiago Almeida
638 exibições
  • Simplificar cifra
    • ½ Tom
    • A
    • Bb
    • B
    • C
    • Db
    • D
    • Eb
    • E
    • F
    • F#
    • G
    • Ab
  • Adicionar à lista

    0 comentários

    Ver todos os comentários

    Entre para oCifra Club PRO

    Tenha acesso a benefícios exclusivos no App e no Site

    • Chega de anúncios

    • Prioridade de compra em lançamentos

    • Mais recursos no app do Afinador

    • Atendimento Prioritário

    • Descontos nos produtos Cifra Club

    • Ajude a produzir mais conteúdo

    00:00 / 00:00

    Cifra Club Pro

    Aproveite o Cifra Club com benefícios exclusivos e sem anúncios
    Cifra Club Pro
    Aproveite o Cifra Club com benefícios exclusivos e sem anúncios
    OK