Cifra Club

Come As You Are

Nirvana

Cifra: Guitarra-simplificada (violão e guitarra)
Tom: G
[Introdução]

E|------------------------------------------------------|
B|------------------------------------------------------|
G|------------------------------------------------------|
D|------------------------------------------------------|
A|----------0---0----------2----------------------------|
E|-0-0-1-2----2---2-2-1-0----0-0------------------------|

E|------------------------------------------------------|
B|------------------------------------------------------|
G|------------------------------------------------------|
D|------------------------------------------------------|
A|-2--------0---0----------2----------------------------|
E|---0-1-2----2---2-2-1-0----0-0------------------------|

E|------------------------------------------------------|
B|------------------------------------------------------|
G|------------------------------------------------------|
D|------------------------------------------------------|
A|-2--------0---0----------2----------------------------|
E|---0-1-2----2---2-2-1-0----0-0------------------------|

E|------------------------------------------------------|
B|------------------------------------------------------|
G|------------------------------------------------------|
D|------------------------------------------------------|
A|-2--------0---0----------2----------------------------|
E|---0-1-2----2---2-2-1-0----0-0------------------------|



[Primeira Parte]

E|------------------------------------------------------|
B|------------------------------------------------------|
G|------------------------------------------------------| (8x)
D|------------------------------------------------------|
A|-2--------0---0----------2----------------------------|
E|---0-1-2----2---2-2-1-0----0-0------------------------|

Come as you are
As you were
As I want you to be
As a friend
As a friend
As an old enemy
Take your time
Hurry up
Choice is yours
Don't be late
Take a rest
As a friend

[Refrão]

               F#m7(11)  A
As an old memory
     F#m7(11)  A
Memory
     F#m7(11)  A
Memory
     F#m7(11)  A
Memory

[Segunda Parte]

E|------------------------------------------------------|
B|------------------------------------------------------|
G|------------------------------------------------------|
D|------------------------------------------------------|
A|----------0---0----------2----------------------------|
E|-0-0-1-2----2---2-2-1-0----0-0------------------------|

E|------------------------------------------------------|
B|------------------------------------------------------|
G|------------------------------------------------------|
D|------------------------------------------------------|
A|-2--------0---0----------2----------------------------|
E|---0-1-2----2---2-2-1-0----0-0------------------------|

E|------------------------------------------------------|
B|------------------------------------------------------|
G|------------------------------------------------------|
D|------------------------------------------------------|
A|-2--------0---0----------2----------------------------|
E|---0-1-2----2---2-2-1-0----0-0------------------------|

E|------------------------------------------------------|
B|------------------------------------------------------|
G|------------------------------------------------------|
D|------------------------------------------------------|
A|-2--------0---0----------2----------------------------|
E|---0-1-2----2---2-2-1-0----0-0------------------------|

Come doused in mud
Soaked in bleach
As I want you to be
As a trend
As friend

[Refrão]

               F#m7(11)  A
As an old memory
     F#m7(11)  A
Memory
     F#m7(11)  A
Memory
     F#m7(11)  A
Memory

[Terceira Parte]

B5        D5
   And I swear that
   B5              D5
I don't have a gun
       B5              D5
No, I don't have a gun
       B5              D5
No, I don't have a gun

[Interlúdio]

E|------------------------------------------------------|
B|------------------------------------------------------|
G|------------------------------------------------------|
D|------------------------------------------------------|
A|----------0---0----------2----------------------------|
E|-0-0-1-2----2---2-2-1-0----0-0------------------------|

E|------------------------------------------------------|
B|------------------------------------------------------|
G|------------------------------------------------------|
D|------------------------------------------------------|
A|-2--------0---0----------2----------------------------|
E|---0-1-2----2---2-2-1-0----0-0------------------------|

[Solo]

E|------------------------------------------------------|
B|------------------------------------------------------|
G|-6~~--9--11\--6~~--9--11\--6~~--9--11--11b13----11--9-| (4x)
D|------------------------------------------------------|
A|------------------------------------------------------|
E|------------------------------------------------------|

[Refrão]

     F#m7(11)  A
Memory
     F#m7(11)  A
Memory
     F#m7(11)  A
Memory
     F#m7(11)  A
Memory

[Terceira Parte]

B5        D5
   And I swear that
   B5              D5
I don't have a gun
       B5              D5
No, I don't have a gun
       B5              D5
No, I don't have a gun
       B5              D5
No, I don't have a gun
       B5              D5
No, I don't have a gun

[Final]

E|------------------------------------------------------|
B|------------------------------------------------------|
G|------------------------------------------------------|
D|------------------------------------------------------|
A|----------0---0----------2----------------------------|
E|-0-0-1-2----2---2-2-1-0----0-0------------------------|

E|------------------------------------------------------|
B|------------------------------------------------------|
G|------------------------------------------------------|
D|------------------------------------------------------|
A|-2--------0---0----------2----------------------------|
E|---0-1-2----2---2-2-1-0----0-0------------------------|

E|------------------------------------------------------|
B|------------------------------------------------------|
G|------------------------------------------------------|
D|------------------------------------------------------|
A|-2--------0---0----------2----------------------------|
E|---0-1-2----2---2-2-1-0----0-0------------------------|

E|------------------------------------------------------|
B|------------------------------------------------------|
G|------------------------------------------------------|
D|------------------------------------------------------|
A|-2--------0---0----------2----------------------------|
E|---0-1-2----2---2-2-1-0----0-0------------------------|

E|------------------------------------------------------|
B|------------------------------------------------------|
G|------------------------------------------------------|
D|------------------------------------------------------|
A|-2----------------------------------------------------|
E|---0-1-2----------------------------------------------|
exibições 147
Acordes para:
    Composição: Dave Grohl / Krist Novoselic / Kurt Cobain Colaboração e revisão:
    • Vinícius Dias

    0 comentários

    mostrar mais comentários

    Conseguiu tocar?

    0 tocaram 0 ainda não

    Grave um vídeo tocando Come As You Are e mande pra gente!

    00:00 / 00:00
    outros vídeos desta música
    repetir qualidade Automático
    Outros vídeos desta música
    00:00 / 00:00
    Automático
    OK