Cifra Club

Come As You Are

Nirvana

Cifra: Guitarra
exibições 449.067
Tom: D
Introdução:


E|------------------------------------------------------|
B|------------------------------------------------------|
G|------------------------------------------------------| (apenas no início)
D|------------------------------------------------------|
A|----------0---0----------2----------------------------|
E|-0-0-1-2----2---2-2-1-0----0-0------------------------|


E|------------------------------------------------------|
B|------------------------------------------------------|
G|------------------------------------------------------|
D|------------------------------------------------------|
A|-2--------0---0----------2----------------------------|
E|---0-1-2----2---2-2-1-0----0-0------------------------|



Primeira Parte:

Come as you are
As you were
As I want you to be
As a friend
As a friend
As an old enemy
Take your time
Hurry up
Choice is yours
Don't be late
Take a rest
As a friend


   F#m7(11)      A
E|-----------------------------------------|
B|------0----------2---2-------------------|
G|------2----2-0---2---2---2-0-------------|
D|----2------2-0-2---2-----2-0-------------|
A|---------------0---0---------------------|
E|-2---------------------------------------|


               F#m7(11)  A
As an old memory
     F#m7(11)  A
Memory
     F#m7(11)  A
Memory
     F#m7(11)  A
Memory


Segunda Parte:

Come doused in mud
Soaked in bleach
As I want you to be
As a trend
As friend

               F#m7(11)  A
As an old memory
     F#m7(11)  A
Memory
     F#m7(11)  A
Memory
     F#m7(11)  A
Memory


Refrão:

B5         D5
   And I swear that 
   B5              D5
I don't have a gun
       B5              D5
No, I don't have a gun
       B5              D5
No, I don't have a gun


(Riff Principal 2x)


Solo:


E|------------------------------------------------------|
B|------------------------------------------------------|
G|-6~~--9--11\--6~~--9--11\--6~~--9--11--11b13----11--9-|  (4x)
D|------------------------------------------------------|
A|------------------------------------------------------|
E|------------------------------------------------------|



Terceira Parte:

F#m7(11)  A      F#m7(11)  A
            Memory
     F#m7(11)  A
Memory
     F#m7(11)  A
Memory           (don't have a gun)


Refrão:

B5         D5
   And I swear that 
   B5              D5
I don't have a gun
       B5              D5
No, I don't have a gun
       B5              D5
No, I don't have a gun
       B5              D5
No, I don't have a gun 
       B5              D5
No, I don't have a gun

(Riff Principal)

Memory, memory

(Final)


E|------------------------------------------------------|
B|------------------------------------------------------|
G|-------2----------------------------------------------|
D|-------4----------------------------------------------|
A|-2-----4----------------------------------------------|
E|---0-1-2~~--------------------------------------------|

0 comentários

    mostrar mais comentários
    00:00 / 00:00
    outros vídeos desta música
    repetirqualidadeautomática
    Outro vídeos desta música
      00:00 / 00:00
      automática
      Capítulos
      • Tocando a Música
      • Dicas iniciais / Equipamentos
      • Afinação
      • Dicas introdução
      • Tocando introdução
      • Ensinando Introdução -Parte 1 de 2
      • Ensinando Introdução -Parte 2 de 2
      • Dicas Primeira parte
      • Tocando Primeira parte
      • Ensinando Primeira parte -Segunda estrofe
      • Dicas Refrão
      • Tocando Refrão
      • Ensinando Ritmo Refrão
      • Arpejo Refrão
      • Dicas Solo
      • Tocando Solo
      • Ensinando Solo
      • Dicas Finais /Encerramento
      • Ficha Técnica
      OK