Cifra Club

Come As You Are

Nirvana

Cifra: Guitarra (violão e guitarra)
Selo Cifra Club: esta cifra foi revisada para atender aos critérios oficiais da nossa Equipe de Qualidade.
tom: Em (forma dos acordes no tom de F#m) Afinação: D G C F A D
[Introdução]

[Tab - Riff Principal]

Parte 1 de 2
E|------------------------------------------|
B|------------------------------------------|
G|------------------------------------------|
D|------------------------------------------|
A|----------0---0----------2----------------|
E|-0-0-1-2----2---2-2-1-0----0-0------------|

Parte 2 de 2
E|------------------------------------------|
B|------------------------------------------|
G|------------------------------------------|
D|------------------------------------------|
A|-2--------0---0----------2----------------|
E|---0-1-2----2---2-2-1-0----0-0------------|

[Primeira Parte]

[Tab - Riff Principal]

Parte 2 de 2
E|------------------------------------------|
B|------------------------------------------|
G|------------------------------------------|
D|------------------------------------------|
A|-2--------0---0----------2----------------|
E|---0-1-2----2---2-2-1-0----0-0------------|

Riff
Come as you are, as you were

As I want you to be

As a friend, as a friend

As an old enemy


Take your time, hurry up

Choice is yours, don't be late

Take a rest, as a friend

[Tab - Segunda Estrofe]

   F#m7(11)      A
E|------------------------------------------|
B|------0----------2---2--------------------|
G|------2----2-0---2---2---2-0--------------|
D|----2------2-0-2---2-----2-0--------------|
A|---------------0---0----------------------|
E|-2----------------------------------------|
   ↓  ↓ ↑    ↓ ↑ ↓ ↑ ↓ ↑   ↓ ↑  

               F#m7(11)  A
As an old memory
     F#m7(11)  A
Memory
     F#m7(11)  A
Memory
     F#m7(11)  A
Memory

[Segunda Parte]

[Tab - Riff Principal]

Parte 1 de 2
E|------------------------------------------|
B|------------------------------------------|
G|------------------------------------------|
D|------------------------------------------|
A|----------0---0----------2----------------|
E|-0-0-1-2----2---2-2-1-0----0-0------------|

Parte 2 de 2
E|------------------------------------------|
B|------------------------------------------|
G|------------------------------------------|
D|------------------------------------------|
A|-2--------0---0----------2----------------|
E|---0-1-2----2---2-2-1-0----0-0------------|

Riff
Come doused in mud, soaked in bleach

As I want you to be

As a trend, as a friend

               F#m7(11)  A
As an old memory
     F#m7(11)  A
Memory
     F#m7(11)  A
Memory
     F#m7(11)  A
Memory

[Refrão]

[Tab - Refrão]

   Bm             D 
E|-------7--------------5-------------------|
B|-----7----7---------7---7-----------------|
G|---7--------7-----7-------7---------------|
D|--------------9-------------7-------------|
A|----------------5-------------------------|
E|-7----------------------------------------|

B5         D5
   And I swear that 
   B5              D5
I don't have a gun
       B5              D5
No, I don't have a gun
       B5              D5
No, I don't have a gun

[Riff Principal]

Parte 1 de 2
E|------------------------------------------|
B|------------------------------------------|
G|------------------------------------------|
D|------------------------------------------|
A|----------0---0----------2----------------|
E|-0-0-1-2----2---2-2-1-0----0-0------------|

Parte 2 de 2
E|------------------------------------------|
B|------------------------------------------|
G|------------------------------------------|
D|------------------------------------------|
A|-2--------0---0----------2----------------|
E|---0-1-2----2---2-2-1-0----0-0------------|

[Solo]

E|----------------------------------------------------|
B|----------------------------------------------------|
G|-6~~--9--11\--6~~--9--11\--6~~--9--11--11b13--11--9-| (4x)
D|----------------------------------------------------|
A|----------------------------------------------------|
E|----------------------------------------------------|

[Terceira Parte]

F#m7(11)  A      F#m7(11)  A
            Memory
     F#m7(11)  A
Memory
     F#m7(11)  A
Memory           (don't have a gun)

[Refrão]

B5         D5
   And I swear that 
   B5              D5
I don't have a gun
       B5              D5
No, I don't have a gun
       B5              D5
No, I don't have a gun
       B5              D5
No, I don't have a gun 
       B5              D5
No, I don't have a gun

[Tab - Riff Principal]

Parte 1 de 2
E|------------------------------------------|
B|------------------------------------------|
G|------------------------------------------|
D|------------------------------------------|
A|----------0---0----------2----------------|
E|-0-0-1-2----2---2-2-1-0----0-0------------|

Parte 2 de 2
E|------------------------------------------|
B|------------------------------------------|
G|------------------------------------------|
D|------------------------------------------|
A|-2--------0---0----------2----------------|
E|---0-1-2----2---2-2-1-0----0-0------------|

Memory, memory

[Final]

E|------------------------------------------|
B|------------------------------------------|
G|------------------------------------------|
D|------------------------------------------|
A|-2----------------------------------------|
E|---0-1-2~~--------------------------------|
Outros vídeos desta música
    477.744 exibições
    • Simplificar cifra
      • ½ Tom
      • Am
      • Bbm
      • Bm
      • Cm
      • C#m
      • Dm
      • Ebm
      • Em
      • Fm
      • F#m
      • Gm
      • G#m
    • Adicionar à lista

    Afinação da cifra

    Afinador online

      0 comentários

      Ver todos os comentários

      Entre para o Cifra Club PRO

      Tenha acesso a benefícios exclusivos no App e no Site

      • Chega de anúncios

      • Badges exclusivas

      • Mais recursos no app do Afinador

      • Atendimento Prioritário

      • Aumente seu limite de lista

      • Ajude a produzir mais conteúdo

      Capítulos
      • Tocando a Música
      • Dicas iniciais / Equipamentos
      • Afinação
      • Dicas introdução
      • Tocando introdução
      • Ensinando Introdução -Parte 1 de 2
      • Ensinando Introdução -Parte 2 de 2
      • Dicas Primeira parte
      • Tocando Primeira parte
      • Ensinando Primeira parte -Segunda estrofe
      • Dicas Refrão
      • Tocando Refrão
      • Ensinando Ritmo Refrão
      • Arpejo Refrão
      • Dicas Solo
      • Tocando Solo
      • Ensinando Solo
      • Dicas Finais /Encerramento
      • Ficha Técnica

      Cifra Club Pro

      Aproveite o Cifra Club com benefícios exclusivos e sem anúncios
      Cifra Club Pro
      Aproveite o Cifra Club com benefícios exclusivos e sem anúncios
      Ops (: Contenido disponible sólo en portugués.
      OK