Cifra Club

Do Re Mi

Nirvana

Cifra: Principal
exibições 63.937
Tom: D# (com acordes na forma de E) Afinação: Eb Ab Db Gb Bb Eb
Esta música é do álbum "With The Lights Out" CD 3, faixa de número 16.

Intro/Verse

       E5                 G#5             C#5              F#5
E|---------------|----------------|----------------|----------------|
B|9----9-9-9-9---|----------------|------6---------|----------------|
G|9----9-9-9-9---|----------------|6---x-6-6-6-6---|------4---------|
D|9----9-9-9-9-0-|6---x-6-6-6-6-0-|6---x-6-6-6-6-0-|4---x-4-4-4-4-0-|
A|7----7-7-7-7-0-|6---x-6-6-6-6-0-|4---x-4-4-4-4-0-|4---x-4-4-4-4-0-|
E|-------------0-|4---x-4-4-4-4-0-|--------------0-|2---x-2-2-2-2-0-|

Pre-Chorus x 3

         B5               A5  C#5  C5
E|----------------|-----------------|
B|----------------|-----------------|
G|4---x-4-4---x-4-|4---x-4------6-5-|
D|4---x-4-4---x-4-|4---x-4--7-0-6-5-|
A|2---x-2-2---x-2-|2---x-2--7-0-4-3-|
E|----------------|---------5-------|

    F#5                               E                    D5
E|----------------|----------------|----------------|----------------|
B|----------------|----------------|9---------------|----------------|
G|----------------|----------------|9---------------|--7-7-7-7-7-7---|
D|4---x-4-4---x-4-|4---x-4---4-4-0-|9---------------|--7-7-7-7-7-7---|
A|4---x-4-4---x-4-|4---x-4---4-4-0-|7---------------|--5-5-5-5-5-5---|
E|2---x-2-2---x-2-|2---x-2---2-2-0-|----------------|----------------|

Chorus

    G#                 E
E|----------------|----------------|
B|----------------|9---x-9-9-9-9---|
G|----------------|9---x-9-9-9-9---|
D|6---x-6-6-6-6-0-|9---x-9-9-9-9---|
A|6---x-6-6-6-6-0-|7---x-7-7-7-7---|
E|4---x-4-4-4-4-0-|----------------|

Post Chorus

E|----------------|
B|----------------|
G|----------------|
D|----------------|
A|-7-6------------|
E|-----9-7-5-4-2-0|
Acordes para:
    Composição: Kurt CobainColaboração e revisão:
    • Arthur Wachholz
    • André Vascontim

    0 comentários

      mostrar mais comentários

      Conseguiu tocar?

      10tocaram1ainda não

      Grave um vídeo tocando Do Re Mi e mande pra gente!

      00:00 / 00:00
      outros vídeos desta música
      repetirqualidadeautomática
      Outro vídeos desta música
        00:00 / 00:00
        automática
        OK