Cifra Club

Drain You

Nirvana

Tab de baixo: Versão 4
(estrofe)
G|----------------------------
D|----------------------------
A|-------4 4---------2 2 2 2--
E|-5 5---------2 2------------

(ponte)
G|----------
D|----------
A|----------
E|--5---3---

(refrão)
G|----------------------------------------------------------
D|----------------------------------------------------------
A|-222222------------222222222-----------22222222-----------
E|--------0000000000-----------000000000----------0000000000

G|-----------------
D|-----------------
A|-----------------
E|-5---3---2~~~~---

(estrofe)
G|----------------------------
D|----------------------------
A|-------4 4---------2 2 2 2--
E|-5 5---------2 2------------

(ponte)
G|----------
D|----------
A|----------
E|--5---3---

(refrão)
G|----------------------------------------------------------
D|----------------------------------------------------------
A|-222222------------222222222-----------22222222-----------
E|--------0000000000-----------000000000----------0000000000

G|-----------------
D|-----------------
A|-----------------
E|-5---3---2~~~~---

(ponte 4x)
G|--------------------------------
D|------------4-4-4-4-4-4---------
A|--------------------------------
E|--2222222222 2 2 2 2 2 222222222

G|------------
D|------------
A|------------
E|--2222222222

(estrofe)
G|----------------------------
D|----------------------------
A|-------4 4---------2 2 2 2--
E|-5 5---------2 2------------

(ponte)
G|----------
D|----------
A|----------
E|--5---3---

(refrão)
G|----------------------------------------------------------
D|----------------------------------------------------------
A|-222222------------222222222-----------22222222-----------
E|--------0000000000-----------000000000----------0000000000

G|-----------------
D|-----------------
A|-----------------
E|-5---3---2~~~~---
00:00 / 00:00
Outros vídeos desta música
Repetir
Outros vídeos desta música
Composição de Kurt Cobain
Colaboração e revisão:
  • Jean Silva
316 exibições

0 comentários

Ver todos os comentários

Conseguiu tocar?

1 Tocaram 0 Ainda não

Grave um vídeo tocando Drain You e nos envie!

Entre para oCifra Club PRO

Tenha acesso a benefícios exclusivos no App e no Site

  • Chega de anúncios

  • Prioridade de compra em lançamentos

  • Mais recursos no app do Afinador

  • Atendimento Prioritário

  • Descontos nos produtos Cifra Club

  • Ajude a produzir mais conteúdo

00:00 / 00:00
Capítulos
  • Tocando a Música
  • Apresentação / Equipamentos
  • Afinação
  • TAB - Primeira Parte
  • TAB - Refrão
  • TAB - Refrão 2
  • TAB - Terceira Parte
  • TAB - Introdução 2
  • TAB - Refrão 3
  • Encerramento

Cifra Club Pro

Aproveite o Cifra Club com benefícios exclusivos e sem anúncios
Cifra Club Pro
Aproveite o Cifra Club com benefícios exclusivos e sem anúncios
OK