Cifra Club

Hairspray Queen

Nirvana

Cifra: Principal
exibições 13.318
Tom: A
Esta música foi retirada do Show KAOZ 87, onde a parte do baixo no início
é tocado por Kurt na guitarra!

Intro:.

E|------------------|
B|------------------|
G|------------------|
D|-x-x-1/11-x-x-x-x-|
A|-x-x-0/9--9-9-0-9-|
E|------------------|

(Bateria começa, guitarra para, começa o baixo)

Segunda parte da guitarra:
E|---------------|
B|---------------|
G|---------------|
D|-1111111111111-|-É a decima primeira casa!
A|-9-9-9-9-9-9-9-|
E|---------------|

Parte com distorção solada:                       2x
E|-------------------------------------------------|-13~~-|
B|---------------------------------13---12---------|-0~~~-|
G|-9-7-8-6-7-56-4-5-3-4-2-1/12~~~~----12---11-10~~-|-12~~-|
D|-------------------------------------------------|-0~~~-|
A|-------------------------------------------------|------|
E|-------------------------------------------------|------|

(Sem guitarra)
I was your mind, you was my, mine...

Pre-Refrão:
E|------------------------|-----------------------|
B|------------------------|-----------------------|
G|---------------------11-|-----------------------|
D|-1111111111111111111111-|-----------------------|
A|-9-9-9-9-9-9-9-9-9-9-9--|-3/1-9/0---------------|
E|------------------------|----------0--------5/4-|

Refrão:
E|------|
B|------|
G|------|
D|-11~~-|
A|-9~~~-|
E|------|
      Midnight, wishful goddes
      Midnight, I'm so hardest
      Midnight, disco goddes
      Midnight, I'm (near) Wahhhhhhhhhh!!!!
Acordes para:

    0 comentários

      mostrar mais comentários

      Conseguiu tocar?

      1tocaram0ainda não

      Grave um vídeo tocando Hairspray Queen e mande pra gente!

      00:00 / 00:00
      outros vídeos desta música
      repetirqualidadeautomática
      Outro vídeos desta música
        00:00 / 00:00
        automática
        OK