Cifra Club

Polly

Nirvana

Tab de baixo: Principal
exibições 16.875
Riff 1
G|--------------------------|
D|--------------------------|
A|-------------5-5--3--3-3-2|
E|-0--0-3-3--0--------------|

Riff 2
G|----------------------------|
D|----------------------------|
A|-5-5--3--3-3-2------1--1-1-0|
E|----------------3-3---------|
Composição: Dave Grohl / Krist Novoselic / Kurt Cobain / NirvanaColaboração e revisão:
  • Gilberto Heisenberg
  • Gabriel P.

0 comentários

    mostrar mais comentários

    Conseguiu tocar?

    31tocaram0ainda não

    Grave um vídeo tocando Polly e mande pra gente!

    00:00 / 00:00
    outros vídeos desta música
    repetirqualidadeautomática
    Outro vídeos desta música
      00:00 / 00:00
      automática
      OK