Cifra Club

Rape Me

Nirvana

Tab de baixo: Principal
exibições 36.748
|--------------------------|--------------------------|
|--------------------------|--------------------------|
|--------------3--3--3--3--|--------------------------|
|--5-----5--5--------------|--0-----0--0--3--3--3--0--|
       
Refrão:
|-----------------------|-----------------------------|
|-----------------------|-----------------------------|
|------------3--3/5--5--|--------------5----5---------|
|2-----2--2-------------|--7-----7--7-----7----7------|
            
|----------------------|------------------------------|
|----------------------|--------------5-----5---------|
|-----------3--3/5--5--|--7-----7--7-----7-----7------|
|-2---2--2-------------|------------------------------|

Parte:
|-------------------------|---------------------------|
|----------------------2--|---------------------------|
|-4-----4--4--4--2--4-----|--0-----0--0---------------|
|-------------------------|--------------3--2--1--0---|

Verso final:
|-----------------------|----------------------|------|
|-----------------------|----------------------|------|
|-----------------------|----------------------|------|
|-1--1--1--1--1--1--1-1-|-3--3--3--3--3-3--3-5/|--12--|
Composição: Kurt CobainColaboração e revisão:
  • Rodrigo

0 comentários

    mostrar mais comentários

    Conseguiu tocar?

    6tocaram0ainda não

    Grave um vídeo tocando Rape Me e mande pra gente!

    00:00 / 00:00
    outros vídeos desta música
    repetirqualidadeautomática
    Outro vídeos desta música
      00:00 / 00:00
      automática
      OK