Cifra Club

Sappy

Nirvana

Cifra: Principal
exibições 101.582
Tom: F#
Verso:

      C#5            A5     F#5     G#5          A5     B5
E|-------------------------------------------------------------|
B|-------------------------------------------------------------|
G|-6--6-6--6-6-6-2--2-2-----------------------2--2-2-4-4-4-4---|
D|-6--6-6--6-6-6-2--2-2-4-4-4-4-7--7-7--7-8-7-2--2-2-4-4-4-4---|
A|-4--4-4--4-4-4-0--0-0-4-4-4-4-7--7-7--7-8-7-0--0-0-2-2-2-2---|
E|----------------------2-2-2-2-5--5-5--5-6-5------------------|

[Refrão]
       A5            F#5           G#5
E|---------------------------------|
B|---------------------------------|
G|-2--2-2--2-2-2-------------------|
D|-2--2-2--2-2-2-4--4-4--4-4-4-7---|
A|-0--0-0--0-0-0-4--4-4--4-4-4-7---|
E|---------------2--2-2--2-2-2-5---|

A5           F#5
 You're in a laundry room,
A5           F#5
 You're in a laundry room,
A5           F#5            G#5
 Conclusion came to you, ohh


SOLO
E|-----------------------------------------------------------------------|
B|-----------------------------------------------------------------------|
G|-------------------4-4-6-6-6-8-8-8-8-8b-8-6-8-8b-8b-8-6----------------|
D|-------2-4/6--4-6------------------------------------------------------|
A|--2/4---------------------------------------------------1-2-2-1--------|
E|-----------------------------------------------------------------4-2---|

E|------------------------------------------------------------------------|
B|------------------------------------------------------------------------|
G|------------------------------------------------------------------------|
D|------------------------------------------------------------------------|
A|----------------------------------------------------------11-13-13-14---|
E|--2-0-2-2b-0-0-0-0-2-2-2-4-4-4-6-6-7-7-9-9-11-11-11-11b-9---------------|

E|---------------------------------------------------------------------|
B|---------------------------------------------------------------------|
G|-------------------11-11------11b-11---------------------------------|
D|-----11-11-14--14---------14----------14--11---13-14-14-14--13--13---|
A|--14-----------------------------------------------------------------|
E|---------------------------------------------------------------------|

E|--------------------------------------------------------------------|
B|--------------------------------------------------------------------|
G|--------------------------------------------------------------------|
D|--11-11-11-11-11-11-13-14-14-13-14-13-11-11--11/13--13-13\11-11\9---|
A|--------------------------------------------------------------------|
E|--------------------------------------------------------------------|

E|------------------|
B|------------------|
G|------------------|
D|------------------|
A|--9\8-8\6-6\4-4---|
E|------------------|

Repetição Refrão

C#5         A5   F#5
 And if you fool yourself
G#5       A5   B5
 You will make him happy

C#5             A5 F#5
 He'll keep you in a jar
G#5         A5    B5
 And you'll think you're happy
C#5             A5        F#5
 He'll give you breathing holes
G#5          A5    B5
 Then you'll think you're happy
C#5          A5  F#5
 He'll cover you with grass
G#5         A5   B5
 And you'll think you're happy
C#5
 Now

Variação do Refrão:

A5           F#5
 You're in a laundry room
A5           F#5
 You're in a laundry room
A5           F#5
 You're in a laundry room
A5           F#5            G#5
 Conclusion came to you, ohh
Acordes para:
    Composição: Kurt CobainColaboração e revisão:

    0 comentários

      mostrar mais comentários

      Conseguiu tocar?

      39tocaram0ainda não

      Grave um vídeo tocando Sappy e mande pra gente!

      00:00 / 00:00
      outros vídeos desta música
      repetirqualidadeautomática
      Outro vídeos desta música
        00:00 / 00:00
        automática
        OK