Cifra Club

Aprenda

Serve The Servants

Nirvana

Cifra: Principal (violão e guitarra)
tom: Eb (forma dos acordes no tom de E) Afinação: Eb Ab Db Gb Bb Eb
[intro]

E|--x----x----x----0-----|----12-----------------------|
B|--x----x----x----0-----|-------12--------------------|
G|--x----x----x---14-----|-----------------------------|
D|--x----x----x---13-----|-----------------------------|
A|--x----x----x---14-----|-----------------------------|
E|--x----x----x----0-----|-----------------------------|

        B7/E                        E7
E|------------------------|----------------------------|
B|------------------------|-----------3----3-----------|
G|-------2---2------------|--------1----1----1---------|
D|----1----1--------------|-0-1/2-2--------------------|
A|-2----------------------|----------------------------|
E|------------------------|----------------------------|
   Teenage angst

  F#5 F#sus2  E
E|------0---------0---------------------------|
B|------0---------0---------------------------|
G|------3---------1---------------------------|
D|--4---4----2--------------------------------|
A|--4---4----2--------------------------------|
E|--2---2----0--------------------------------|
        ...old

           A                    C#
E|-----------------------------------------------|
B|-----------------------------------------------|
G|------------------------6--6--6--6---6---6-----|
D|---7--7--7--7---7---7---6--6--6--6---6---6-----|
A|---7--7--7--7---7---7---4--4--4--4---4---4-----|
E|---5--5--5--5---5---5--------------------------|
                Serve the servants....

Bridge:
                   
E|----------------------------------------------------------|
B|----------------------------------------------------------|
G|-----------13-----------------------------------------------|
D|-----------12-----------------------------------------------|
A|--444-555/-13------------------------------------------------------|
E|--222-333/-------------------------------------------------------|
  That legendary...                                 ...bore.

[solo]

E|--------------------------------|------------------------------------|
B|------------0-----0-------------|------------------------------------|
G|--4b-----4-----4-----4--4-4-4-4-|--4-4-4-4-4-4-4-4-4-4-4-4-4-4-4--4--|
D|--------------------------------|------------------------------------|
A|--------------------------------|------------------------------------|
E|--------------------------------|------------------------------------|
                                                                              
E|---------------------------|---------0----0-0-------|------------------------|
B|---------------------------|---------0----0-0-------|------------------------|
G|--4--2--0--0---------------|---------0----0-0-------|------------------------|
D|-----------0---------------|------------------------|-----------7r-----------|
A|-----------0---------------|------------------2--0--|--6/-7--7--7r-----5b----|
E|--------------3--3b---3b---|--0---------------------|--0------------------7--|
                                               
E|-----------------------|-----------------------|-------------------------|
B|-----------------------|-----------------------|-------------------------|
G|-----------------------|-----------------------|-------------------------|
D|-----------------------|-----------------------|-------------------------|
A|--0--2--2r---2----2~---|--2/-4--4--4b-----4r---|--4\-2--2--2~---2--2-----|
E|-----------------------|-----------------------|----------------------0--|
                                                               
E|--------------------------------|-----------------------------|
B|--------------------------------|-----------------------------|
G|--------------------------------|-----------------------------|
D|--------14--14b-14--14--14--14--|--14--14--14--14-------------|
A|--10b---16--16b-16--16--16--16--|--16--16--16b-16\------------|
E|--------------------------------|--------------------5--5~--5-|
                                                                         
E|-----------------------|---------0-----------|--------------------------|
B|-----------------------|---------0-----------|-----------------8--------|
G|-----------------------|---------------------|--------4--6/-7-----6--7--|
D|-----------------------|---------------------|--4--6--------------------|
A|-----------------------|---------------------|--------------------------|
E|--5/-7--7--7b-----7b---|--7~------------7----|--------------------------|
                                                                              
E|-----------------------------|---------------------------|-------------------|
B|--------10--10--10--8--------|---------------------------|-------------------|
G|--7/-9--9---9---9---7\-6--6--|--6/-7--7--6-7-6--7--6--7--|--2----------------|
D|-----------------------------|---------------------------|--2----------------|
A|-----------------------------|---------------------------|--0----------------|
E|-----------------------------|---------------------------|-------------------|
                        
E|----------------------|
B|----------------------|
G|--2--2--2--2----------|
D|--2--2--2--2----------|
A|--0--0--0--0----------|
E|----------------------|
Composição de Kurt Cobain
Colaboração e revisão:
87.383 exibições
  • Simplificar cifra
    • ½ Tom
    • A
    • Bb
    • B
    • C
    • Db
    • D
    • Eb
    • E
    • F
    • F#
    • G
    • Ab
  • Adicionar à lista

    0 comentários

    Ver todos os comentários

    Conseguiu tocar?

    12 Tocaram 6 Ainda não

    Grave um vídeo tocando Serve The Servants e nos envie!

    00:00 / 00:00
    Outros vídeos desta música
    Repetir Qualidade Automático
    Outros vídeos desta música
    00:00 / 00:00
    Automático

    Cifra Club Pro

    Aproveite o Cifra Club com benefícios exclusivos e sem anúncios
    Cifra Club Pro
    Aproveite o Cifra Club com benefícios exclusivos e sem anúncios
    OK