Cifra Club

Verse Chorus Verse

Nirvana

Cifra: Principal (violão e guitarra)
tom: F (forma dos acordes no tom de G) Afinação: D G C F A D
[Intro] B5 G F#5 E5 B5 D5 A5 C5 F#5

[Riff] 1


   B5      G        F#5     E5       B5      D5        A5      C5   F#5
E|--------------------------0-0-0---------------------------------------|
B|-4--4-0-------------------0-0-0----4--4--4----------------------------|
G|-4--4-0-------------------x-x-x----4--4--4/7-7-7--0--2--2-0--5-0------|
D|-4--4-0--0-0-0-0--4-4--0--2-2-2-0--4--4--4/7-7-7--0--2--2-0--5-0--4-0-|
A|-2--2-0--x-x-x-0--4-4--0--2-2-2-0--2--2--2/5-5-5--0--0--0-0--3-0--4-0-|
E|---------3-3-3-0--2-2--0--0-0-0-0---------------------------------2-0-|


B5        G       F#5
Neither side is sacred
E5        B5      D5  A5  C5 F#5
 No one wants to win
 B5     G      F#5
Feeling so sedated
E5           B5       D5  A5  C5 F#5
Think I'll just give in

B5      G        F#5
Taking medication
E5          B5        D5  A5  C5 F#5
 Till my stomach's full
B5        G        F#5
Neither side is sacred
E5          B5      D5  A5  C5 F#5
 Crawling in the hole

[Riff] 2

        G#5      D#5       B5       D5
E|---------------------------------------|
B|---------------------------------------|
G|----------8-8-8--0-----------7-7-7--0--|
D|-6--6--0--8-8-8--0--9--9--0--7-7-7--0--|
A|-6--6--0--6-6-6--0--9--9--0--5-5-5--0--|
E|-4--4--0------------7--7--0------------|

(Distorção On)

G#5    D#5           B5 D5       G#5
   The grass is greener over here
D#5           B5    D5
You're the fog that keeps it clear
G#5 D#5         B5 D5        G#5
    Re-inventing   what we knew
D#5         B5    D5
Take the time and I'll be true
G#5 D#5            B5 D5         G#5
    You're the reason I feel pain
D#5          B5   D5       G#5 F#5
Feels so good  to feel again


[Riff] 3


    G#5              F#5
E|------------------------------------|
B|------------------------------------|
G|------------------------------------|
D|--6-6-6-6-6-6-6-0--4-4-4-4-4-4-4-0--|
A|--6-6-6-6-6-6-6-0--4-4-4-4-4-4-4-0--|
E|--4-4-4-4-4-4-4-0--2-2-2-2-2-2-2-0--|

(Distorção Off)

B5       G       F#5
Neither side is sacred
E5        B5       D5  A5  C5 F#5
 No one wants to win
 B5      G      F#5
Feeling so sedated
E5          B5     D5  A5  C5 F#5
 But I can't give in
B5      G        F#5
Taking medication
E5          B5        D5  A5  C5 F#5
 Till my stomach's full
B5       G         F#5
Feelin' so sedated
E5          B5      D5  A5  C5 F#5
 When I'm in my hole

(Distorção On)

G#5    D#5           B5 D5       G#5
   The grass is greener over here
D#5           B5     D5
You're the fog  that keeps it clear
G#5 D#5         B5 D5        G#5
    Re-inventing   what we knew
D#5       B5      D5
Take the time and we will too
G#5 D#5            B5 D5         G#5
    You're the reason I feel pain
D#5          B5   D5       G#5 F#5
Feels so good  to feel again

[Solo]

(Distorção Off)

E|-----------------------------|------------------------------|
B|-----------------------------|------------------------------|
G|---4-0---0-------------------|---4-0---0--------------------|
D|-----------0---4---2----2----|-----------0---4---2-----2----|
A|-2-------------4---2------2--|-2-------------4---2-------2--|
E|-------3-----2---0-0--0------|-------3-----2---0-0--0-------|

E|------------------------------|-------------------------------|
B|------------------------------|-------------------------------|
G|-----4---0--------------------|-----4---0---------------------|
D|---4------0-----4---2----2----|---4------0-----4---2-2-2-2-2--|
A|-2--------------4---2------2--|-2--------------4---2-2-2-2-2--|
E|-------3------2---0-0--0------|-------3------2---0-0-0-0-0-0--|

(Distorção On)

B5       G5        F#5
Neither side is sacred
E5         B5      D5  A5  C5 G5
 No one wants to win
 B5      G5        F#5
Feeling so sedated
E5          B5     D5  A5  C5 G5
 But I can't give in
B5      G5        F#5
Taking medication
E5          B5        D5  A5  C5 G5
 Till my stomach's full
B5      G5         F#5
Feelin' so sedated
E5          B5     D5  A5  C5 G5
 When I'm in my hole


G#5    D#5           B5 D5        G#5
   The grass is greener over here
D#5           B5     D5
You're the fog  that keeps it clear
G#5 D#5         B5 D5        G#5
    Re-inventing   what we knew
D#5        B5          D5
Learn from history all the truth
G#5 D#5            B5 D5          G#5
    You're the reason I feel pain
D#5          B5   D5       G#5 F#5
Feels so good  to feel again

(Distorção Off)

B5
Hole
00:00 / 00:00
Outros vídeos desta música
Repetir
Outros vídeos desta música
Composição de Kurt Cobain
Colaboração e revisão:
  • Lucas Araújo
  • Douglas Mattive
3.080 exibições
    • ½ Tom
    • A
    • Bb
    • B
    • C
    • Db
    • D
    • Eb
    • E
    • F
    • F#
    • G
    • Ab
  • Adicionar à lista

    0 comentários

    Ver todos os comentários

    Conseguiu tocar?

    5 Tocaram 0 Ainda não

    Grave um vídeo tocando Verse Chorus Verse e nos envie!

    Entre para oCifra Club PRO

    Tenha acesso a benefícios exclusivos no App e no Site

    • Chega de anúncios

    • Prioridade de compra em lançamentos

    • Mais recursos no app do Afinador

    • Atendimento Prioritário

    • Descontos nos produtos Cifra Club

    • Ajude a produzir mais conteúdo

    00:00 / 00:00

    Cifra Club Pro

    Aproveite o Cifra Club com benefícios exclusivos e sem anúncios
    Cifra Club Pro
    Aproveite o Cifra Club com benefícios exclusivos e sem anúncios
    OK