Cifra Club

Aprenda

Very Ape

Nirvana

Tab de baixo: Principal
Drop D tuning (D A D G)

Verse
G:-----------------
D:-----------------
A:-----------------
D:-4-6-6---4-7-7---

After verse ("I'm very ape, I'm very nice")
G:---------------------
D:---------------------
A:---------------------
D:-4-4-4-4-2-2-2-9-8-4-

Chorus
G:----------------------------
D:----------------------------
A:-----2/5-5-5-5/9-9-9--------
D:-6-6-----------------4-3-4--



8:Milk It
Drop D tuning (D A D G)

Intro/ Chorus -Repeat how many times you're supposed to-
G:---------------------------------------------
D:---------------------------------------------
A:-0-0---------------------------0-0-----------
D:------1-1-4-1/4-4-4-5-5-1-1--------1-1-4-4-4---

Verse/After chorus (look on the......|  protector of the.....)
G:-----------------------------
D:-----------------------------
A:-0-0-------------------------
D:-----1-1-4-1/4-4-4-5-5-1-1---
Continue to play this over and over again,
it's hard to get the timing, but is exactly
like the chorus except there aren't any pauses.




_______________________________________________________
Contribuição: Felipe Furlan da Rosa(fynonlipy@mtv.com.br)
Composição de Kurt Cobain
4.400 exibições

0 comentários

Ver todos os comentários

Conseguiu tocar?

0 Tocaram 0 Ainda não

Grave um vídeo tocando Very Ape e nos envie!

00:00 / 00:00
Outros vídeos desta música
Repetir Qualidade Automático
Outros vídeos desta música
00:00 / 00:00
Automático

Cifra Club Pro

Aproveite o Cifra Club com benefícios exclusivos e sem anúncios
Cifra Club Pro
Aproveite o Cifra Club com benefícios exclusivos e sem anúncios
OK