Cifra Club

Aleluia

Nívea Soares

Cifra: Principal (violão e guitarra)
Tom: D
[Intro] Bm7

[Refrão]

D    Bm7  G      D   A/C#
 Aleluia,    aleluia
       Bm7  G     D    A
Tu és digno   de louvor
    Bm7  G      D   A/C#
Aleluia,    aleluia
       Bm7  G     D    A
Tu és digno   de louvor

Bm7
   Te exaltamos
G
 Te exaltamos
D            A/C#
 Te exaltamos,    Jesus

     Bm7                 G               D               A
E|----------------17---------------17--------------17--------------14-|
B|---15-----14---------15----14---------15---14---------15----14------|
G|-14----14----14---14----14----14---14---14----14----14----14---14---|
D|--------------------------------------------------------------------|
A|--------------------------------------------------------------------|
E|--------------------------------------------------------------------|

Bm7
   Te entronizamos
G
 Te engrandecemos
D                       A
 Glória ao teu nome oh Deus!

     Bm7                 G               D               A
E|----------------17---------------17--------------17--------------14-|
B|---15-----14---------15----14---------15---14---------15----14------|
G|-14----14----14---14----14----14---14---14----14----14----14---14---|
D|--------------------------------------------------------------------|
A|--------------------------------------------------------------------|
E|--------------------------------------------------------------------|

[Pré-Refrão]

Bm7
   Te exaltamos
G
 Te exaltamos
D            A/C#
 Te exaltamos,    Jesus
Bm7
   Te entronizamos
G
 Te engrandecemos
D                       A
 Glória ao teu nome oh Deus!

[Refrão]

    Bm7  G      D   A/C#
Aleluia,    aleluia
       Bm7  G     D    A
Tu és digno   de louvor

    Bm7  G      D   A/C#
Aleluia,    aleluia
       Bm7  G     D    A
Tu és digno   de louvor

[Pré-Refrão]

Bm7
   Te exaltamos
G
 Te exaltamos
D            A/C#
 Te exaltamos,    Jesus
Bm7
   Te entronizamos
G
 Te engrandecemos
D                       A
 Glória ao teu nome oh Deus!

[Refrão]

    Bm7  G      D   A/C#
Aleluia,    aleluia
       Bm7  G     D    A
Tu és digno   de louvor

    Bm7  G      D   A/C#
Aleluia,    aleluia
       Bm7  G     D    A
Tu és digno   de louvor

[Solo]

E|-14-----14---15------15--14------14----12---12--------14-|
B|---15-15---15---15-15--15--15-15----15---15---15-14---15-|
G|------------------------------------------------------14-|
D|---------------------------------------------------------|
A|---------------------------------------------------------|
E|---------------------------------------------------------|

[Refrão]

    Bm7  G      D   A/C#
Aleluia,    aleluia
       Bm7  G     D    A
Tu és digno   de louvor

    Bm7  G      D   A/C#
Aleluia,    aleluia
       Bm7  G     D    A
Tu és digno   de louvor

[Final]

E|-14-----14---15------15--14------14----12---12--------14-|
B|---15-15---15---15-15--15--15-15----15---15---15-14---15-|
G|------------------------------------------------------14-|
D|---------------------------------------------------------|
A|---------------------------------------------------------|
E|---------------------------------------------------------|
exibições 124.423
Acordes para:

    0 comentários

    mostrar mais comentários

    Conseguiu tocar?

    11 tocaram 0 ainda não

    Grave um vídeo tocando Aleluia e mande pra gente!

    00:00 / 00:00
    outros vídeos desta música
    repetir qualidade Automático
    Outros vídeos desta música
    00:00 / 00:00
    Automático
    OK