Cifra Club

Ele Vem

Nívea Soares

Cifra: Principal (violão e guitarra)
Tom: E
Intro: C#  B  E  B

C#           B                            E      B
  Ele vem, e tudo o que existe já não mais existirá
C#          B                              E           B
 Ele vem, e toda a glória que este mundo tem já vai passar

(Intro)

C#          B                       E      B
 Ele vem, e toda a lágrima dos olhos enxugará
C#            B                    E          B
 Ele vem, e o inimigo da minha alma condenado já está

Coro:

 C#    B    E      B
               O Espírito e a noiva dizem:
  C#   B   E                  B
"Ve___em, vem pra buscar tua noiva!"
         C#   B   E                  B
Dizem: "Ve___em, vem pra buscar tua noiva!" Vem ...

(Intro)

C#          B                       E         B
 Ele vem, e cada dia mais a sua face eu vou tocar
C#          B                     E          B
 Ele vem, e no calor do seu abraço vou descansar

(Intro)

C#          B                         E         B
 Ele vem, e cada dia mais em santidade eu vou andar
C#          B                   E        B
 Ele vem, e sua glória quero ver neste lugar

"Ora vem senhor Jesus..." ( C#  G#m7  A  B )
"aquece o meu coração Senhor quero estar pronto pra te encontrar"

E|-14-13---------------14-13--------------16-13-------------16-13-------------|
B|-------14------------------14-----------------14----------------14----------|
G|-----------13-13-13------------13-13-13----------13-13-13----------13-13-13-|
D|----------------------------------------------------------------------------|
A|----------------------------------------------------------------------------|
E|----------------------------------------------------------------------------|

E|-12----------------12----------------14-13---------------14-13--------------|
B|----14-12-------------14-12----------------14------------------14-----------|
G|----------13-13-13----------13-13-13-----------13-13-13------------13-13-13-|
D|----------------------------------------------------------------------------|
A|----------------------------------------------------------------------------|
E|----------------------------------------------------------------------------|

E|-14-13---------------14-13--------------14-13----14-13-----------------19-------17-------16-|
B|-------14------------------14-----------------14-------14-14--17----------------------------|
G|-----------13-13-13------------13-13-13--------------------------14-14----14-14----14-14----|
D|--------------------------------------------------------------------------------------------|
A|--------------------------------------------------------------------------------------------|
E|--------------------------------------------------------------------------------------------|

E|-12-12h14-14-14--14-19-21-19s21--21-21-19-19s0-|
B|-----------------------------------------------|
G|-----------------------------------------------|
D|-----------------------------------------------|
A|-----------------------------------------------|
E|-----------------------------------------------|
exibições 49.085
Acordes para:
    Composição: Nívea Soares Colaboração e revisão:
    • Jefferson Barbosa
    • miquéias
    • Luiz

    0 comentários

    mostrar mais comentários

    Conseguiu tocar?

    0 tocaram 0 ainda não

    Grave um vídeo tocando Ele Vem e mande pra gente!

    00:00 / 00:00
    outros vídeos desta música
    repetir qualidade Automático
    Outros vídeos desta música
    00:00 / 00:00
    Automático
    OK