Enviar cifraEntrar

Incomparável

Nívea Soares

Cifra: Principal
exibições 85.425
Tom: D
Intro 2x: Bm  G  D  A

Solo Introdução

E|----------------------------|--------------------12-12---|
B|--12-12-12-12-12-12-14-14---|--15-15-15-15-15-15---------|
G|----------------------------|----------------------------|
D|----------------------------|----------------------------|
A|----------------------------|----------------------------|
E|----------------------------|----------------------------|


--14-14-14-14-14-14----12---|----------------------------|-------||
--------------------15------|--14-14-14-14-14-14-14-14---|--12---||
----------------------------|----------------------------|-------||
----------------------------|----------------------------|-------||
----------------------------|----------------------------|-------||
----------------------------|----------------------------|-------||



           Bm                G
Sangue derramado , graça revelada
     D             F#m
em Cristo filho de Deus
           Bm                 G
Sou o teu desejo , és o meu amado
       D            A9
Tenho fome e sede de Ti
       Em               G
Mergulhado em Teu doce amor
       Bm             A9
Sou curado , transformado
    Em                 G
Atraido pelo Teu Espírito
         Bm                A9
Eu prossigo de glória em glória

   D     G
Te amo ,
          Bm    A9
Deus poderoso
   D    G
Incompáravel
     Bm          A9
Teu amor me satisfaz

Intro : Bm  G  D  A/C#

(volta ao início)

   F#m                G
A vida eterna é te conhecer
       Bm             A9
Único Deus , glorioso Deus
       F#m            G      (2x)
O meu anseio é te conhecer
        Bm            A9
Único Deus , glorioso Deus. (volta para o refrão).
  • 1
  • 2
  • 3
  • 4
  • 5
  • 6
  • 7
  • 8
  • 9
  • 10
  • 11
  • 12
    Acordes para:

      0 comentários

        mostrar mais comentários

        Conseguiu tocar?

        6tocaram0ainda não

        Grave um vídeo tocando Incomparável e mande pra gente!

        00:00 / 00:00
        outros vídeos desta música
        repetirqualidadeautomática
        • automática
        Outro vídeos desta música
          00:00 / 00:00
          automática
          • automática
          Acordes para:violão e guitarra
          dificuldadeexibiçõescontribuições
          fecharplay/pause subir/descer velocidade
            acordes
            fechar
            OK
            Feedback