Cifra Club

Don't Speak

No Doubt

Cifra: Principal (violão e guitarra)
Selo Cifra Club: esta cifra foi revisada para atender aos critérios oficiais da nossa Equipe de Qualidade.
tom: C#m (forma dos acordes no tom de Cm) Capotraste na 1ª casa
[Intro] Cm

Cm
You and me
   Gm           Fm
We used to be together
Bb         Gm
Everyday together
Fm         Bb
Always
   Cm       Gm
I really feel
         Fm        Bb
That I`m losing my best friend
   Gm
I can`t believe
       Cm       Fm      Bb
This could be the end
    Cm       Gm
It looks as though

  Fm          Bb
You`re letting go
    Eb
And if it`s real
     Bb               C
Well I don`t wan`t to know

Fm
Don`t Speak
    Bbm                   Eb
I know just what you`re saying
C                Bbm7
So please stop explaining
        C               Fm   Bbm7 C
Don`t tell me cause it hurts
Fm
Don`t Speak
    Bbm             Eb
I know what you`re thinking
C                 Bbm7
I don`t need your reasons
        C               Fm   C#  Eb
Don`t tell me cause it hurts

    Cm
Our memories
Gm            Fm
They can be inviting
              Bb
But some are all together
Gm       Fm          Bb
Mighty frightening
Cm    Gm      Fm        Bb
As we die, both you and I
Eb                  Bb             C
With my head in my hands I sit and cry

Fm
Don`t Speak
   Bbm                 Eb
I know just what you`re saying
C                Bbm7
So please stop explaining
        C               Fm   Bbm7 C
Don`t tell me cause it hurts
Fm
Don`t Speak
   Bbm               Eb
I know what you`re thinking
C                 Bbm7
I don`t need your reasons
       C               Fm (Eb Cm G#)
Don`t tell me cause it hurts


C#        G#
It`s all ending
         B      F#              A (C#m Eb G#4 G#)
I gotta stop pretending who we are

[Solo]

[Base] Cm  Gm  Fm  Bb  Gm  Cm  Fm] 

E|-----------3---------------|
B|-------4-6---6---3---------|
G|-----5-------------3-------|
D|-----------------------5-6-|
A|---------------------------|
E|---------------------------|

E|-----------------------------------3---------------|
B|------4--6/8-6---8-------------4-6---6---3---------|
G|----5------------------------5-------------3-------|
D|-----------------------------------------------5-6-|
A|---------------------------------------------------|
E|---------------------------------------------------|
E|----------3-4-3-4-6---4-3-----------------8--10--11--10p11h10-8-10----8------|
B|--------4-----------------6-------------8--------------------------11---8-11-|
G|------5-------------------------------8--------------------------------------|
D|----x------------------------------10----------------------------------------|
A|-----------------------------------------------------------------------------|
E|-----------------------------------------------------------------------------|

E|------------------------------------------------------------------------------|
B|-----8------8--9--11--9-11h9-8------------------------------------------------|
G|--10---8-10-------------------------------------------------------------------|
D|-----------------------------------------------------------------8-10--8------|
A|-------------------------------------------------8-10----8-10-11----------11--|
E|-----------------------------------------8-10-11------11----------------------|
E|-------------------------|
B|-------------------------|
G|-------------------------|
D|-------------------------|
A|--10p11h10---------------|
E|-------------------------|

Cm         Gm
You and me
Fm           Bb       Fm   Bb
I can see us dying... are we?

Fm
Don`t Speak
    Bbm                 Eb
I know just what you`re saying
C                Bbm7
So please stop explaining
        C              Fm   Bbm7 C
Don`t tell me cause it hurts
Fm
Don`t Speak
    Bbm            Eb
I know what you`re thinking
C                  Bbm7
I don`t need your reasons
        C               Fm   Bbm7 C
Don`t tell me cause it hurts

[Final] Fm  Bbm  Eb
        C  Bbm7  C
Outros vídeos desta música
    530.423 exibições
      • ½ Tom
      • Am
      • Bbm
      • Bm
      • Cm
      • C#m
      • Dm
      • Ebm
      • Em
      • Fm
      • F#m
      • Gm
      • G#m
    • Adicionar à lista

    Afinação da cifra

    Afinador online

      0 comentários

      Ver todos os comentários

      Conseguiu tocar?

      39Tocaram10Ainda não

      Grave um vídeo tocando Don't Speak e nos envie!

      Toque também

      1. Imagem do artista Alanis MorissetteIronic Alanis Morissette
      2. Imagem do artista HoleMalibu Hole
      3. Imagem do artista Nelly FurtadoI'm Like a Bird Nelly Furtado
      4. Imagem do artista GarbageOnly Happy When It Rains Garbage

      Entre para o Cifra Club PRO

      Tenha acesso a benefícios exclusivos no App e no Site

      • Chega de anúncios

      • Badges exclusivas

      • Mais recursos no app do Afinador

      • Atendimento Prioritário

      • Aumente seu limite de lista

      • Ajude a produzir mais conteúdo

      Cifra Club Pro

      Aproveite o Cifra Club com benefícios exclusivos e sem anúncios
      Cifra Club Pro
      Aproveite o Cifra Club com benefícios exclusivos e sem anúncios
      OK