Cifra Club

Aprenda

Beth

No Use For A Name

Tab de baixo: Principal
Album: Making Friends
Tabbed By: matchbook1984 (blimp)

r = let note ring until it changes
* = play note 6-8 times

G|--------------------------------------|
D|--------------------------------------|
A|--3*--3*--3*--0r--------------3*--7r--| x 1
E|------------------3r--1*--1*----------|

PART B - Just a few more hours...
G|--------------------------------------|
D|--------------------------3r--5r------|
A|--0*------------------5*----------0r--| x 1
E|------3*--1*--0*--3r------------------|

PART C - this part isn't quite right but sounds ok to me
G|--------------------------------------|
D|--------------2-----------------------|
A|-----------------3--------------------| x 1
E|--3--3--0--1--------------------------|

PART A x 1
PART B x 1
PART C x 1

PART D
G|--------------------------------------|
D|------------------------------2*------|
A|--3*--3*----------3*--3*--------------| x 1
E|----------1*--3*----------1*----------|

PART B x 1


Then come in with
PART E - First part of Guitar Solo
G|--------------------------------------|
D|--------------------------------------|
A|--3*--3*------------------------------| x 4
E|----------1*--3*----------------------|

PART F - Second part of Guitar Solo
G|--------------------------------------|
D|------------------3*--5*--------------|
A|--3*--3*--0*--0*----------3*--3*------| x 2
E|--------------------------------------|

PART G - Last part just before the fuck up - A Soulmate riff
G|--------------------------------------|
D|--------------------------------------|
A|------6*------4*----------------------| x ?
E|--4*------1*--------------------------|
Composição de Kiss
248 exibições

0 comentários

Ver todos os comentários

Conseguiu tocar?

0 Tocaram 0 Ainda não

Grave um vídeo tocando Beth e nos envie!

00:00 / 00:00
outros vídeos desta música
repetir qualidade Automático
Outros vídeos desta música
00:00 / 00:00
Automático

Cifra Club Pro

Aproveite o Cifra Club com benefícios exclusivos e sem anúncios
Cifra Club Pro
Aproveite o Cifra Club com benefícios exclusivos e sem anúncios
OK